  0
SECTION
  2
HEADER
  9
$ACADVER
  1
AC1018
  9
$ACADMAINTVER
 70
     0
  9
$DWGCODEPAGE
  3
ANSI_1252
  9
$INSBASE
 10
0.0
 20
0.0
 30
0.0
  9
$EXTMIN
 10
1.000000000000000E+20
 20
1.000000000000000E+20
 30
1.000000000000000E+20
  9
$EXTMAX
 10
-1.000000000000000E+20
 20
-1.000000000000000E+20
 30
-1.000000000000000E+20
  9
$LIMMIN
 10
0.0
 20
0.0
  9
$LIMMAX
 10
12.0
 20
9.0
  9
$ORTHOMODE
 70
     0
  9
$REGENMODE
 70
     1
  9
$FILLMODE
 70
     1
  9
$QTEXTMODE
 70
     0
  9
$MIRRTEXT
 70
     1
  9
$LTSCALE
 40
1.0
  9
$ATTMODE
 70
     1
  9
$TEXTSIZE
 40
0.2
  9
$TRACEWID
 40
0.05
  9
$TEXTSTYLE
  7
Standard
  9
$CLAYER
  8
0
  9
$CELTYPE
  6
ByLayer
  9
$CECOLOR
 62
   256
  9
$CELTSCALE
 40
1.0
  9
$DISPSILH
 70
     0
  9
$DIMSCALE
 40
1.0
  9
$DIMASZ
 40
0.18
  9
$DIMEXO
 40
0.0625
  9
$DIMDLI
 40
0.38
  9
$DIMRND
 40
0.0
  9
$DIMDLE
 40
0.0
  9
$DIMEXE
 40
0.18
  9
$DIMTP
 40
0.0
  9
$DIMTM
 40
0.0
  9
$DIMTXT
 40
0.18
  9
$DIMCEN
 40
0.09
  9
$DIMTSZ
 40
0.0
  9
$DIMTOL
 70
     0
  9
$DIMLIM
 70
     0
  9
$DIMTIH
 70
     1
  9
$DIMTOH
 70
     1
  9
$DIMSE1
 70
     0
  9
$DIMSE2
 70
     0
  9
$DIMTAD
 70
     0
  9
$DIMZIN
 70
     0
  9
$DIMBLK
  1

  9
$DIMASO
 70
     1
  9
$DIMSHO
 70
     1
  9
$DIMPOST
  1

  9
$DIMAPOST
  1

  9
$DIMALT
 70
     0
  9
$DIMALTD
 70
     2
  9
$DIMALTF
 40
25.4
  9
$DIMLFAC
 40
1.0
  9
$DIMTOFL
 70
     0
  9
$DIMTVP
 40
0.0
  9
$DIMTIX
 70
     0
  9
$DIMSOXD
 70
     0
  9
$DIMSAH
 70
     0
  9
$DIMBLK1
  1

  9
$DIMBLK2
  1

  9
$DIMSTYLE
  2
Standard
  9
$DIMCLRD
 70
     0
  9
$DIMCLRE
 70
     0
  9
$DIMCLRT
 70
     0
  9
$DIMTFAC
 40
1.0
  9
$DIMGAP
 40
0.09
  9
$DIMJUST
 70
     0
  9
$DIMSD1
 70
     0
  9
$DIMSD2
 70
     0
  9
$DIMTOLJ
 70
     1
  9
$DIMTZIN
 70
     0
  9
$DIMALTZ
 70
     0
  9
$DIMALTTZ
 70
     0
  9
$DIMUPT
 70
     0
  9
$DIMDEC
 70
     4
  9
$DIMTDEC
 70
     4
  9
$DIMALTU
 70
     2
  9
$DIMALTTD
 70
     2
  9
$DIMTXSTY
  7
Standard
  9
$DIMAUNIT
 70
     0
  9
$DIMADEC
 70
     0
  9
$DIMALTRND
 40
0.0
  9
$DIMAZIN
 70
     0
  9
$DIMDSEP
 70
    46
  9
$DIMATFIT
 70
     3
  9
$DIMFRAC
 70
     0
  9
$DIMLDRBLK
  1

  9
$DIMLUNIT
 70
     2
  9
$DIMLWD
 70
    -2
  9
$DIMLWE
 70
    -2
  9
$DIMTMOVE
 70
     0
  9
$LUNITS
 70
     2
  9
$LUPREC
 70
     4
  9
$SKETCHINC
 40
0.1
  9
$FILLETRAD
 40
0.5
  9
$AUNITS
 70
     0
  9
$AUPREC
 70
     0
  9
$MENU
  1
.
  9
$ELEVATION
 40
0.0
  9
$PELEVATION
 40
0.0
  9
$THICKNESS
 40
0.0
  9
$LIMCHECK
 70
     0
  9
$CHAMFERA
 40
0.5
  9
$CHAMFERB
 40
0.5
  9
$CHAMFERC
 40
1.0
  9
$CHAMFERD
 40
0.0
  9
$SKPOLY
 70
     0
  9
$TDCREATE
 40
2456576.536921944
  9
$TDUCREATE
 40
2456575.995255278
  9
$TDUPDATE
 40
2456576.536921956
  9
$TDUUPDATE
 40
2456575.995255289
  9
$TDINDWG
 40
0.0000000116
  9
$TDUSRTIMER
 40
0.0000000116
  9
$USRTIMER
 70
     1
  9
$ANGBASE
 50
0.0
  9
$ANGDIR
 70
     0
  9
$PDMODE
 70
     0
  9
$PDSIZE
 40
0.0
  9
$PLINEWID
 40
0.0
  9
$SPLFRAME
 70
     0
  9
$SPLINETYPE
 70
     6
  9
$SPLINESEGS
 70
     8
  9
$HANDSEED
  5
2A9
  9
$SURFTAB1
 70
     6
  9
$SURFTAB2
 70
     6
  9
$SURFTYPE
 70
     6
  9
$SURFU
 70
     6
  9
$SURFV
 70
     6
  9
$UCSBASE
  2

  9
$UCSNAME
  2

  9
$UCSORG
 10
0.0
 20
0.0
 30
0.0
  9
$UCSXDIR
 10
1.0
 20
0.0
 30
0.0
  9
$UCSYDIR
 10
0.0
 20
1.0
 30
0.0
  9
$UCSORTHOREF
  2

  9
$UCSORTHOVIEW
 70
     0
  9
$UCSORGTOP
 10
0.0
 20
0.0
 30
0.0
  9
$UCSORGBOTTOM
 10
0.0
 20
0.0
 30
0.0
  9
$UCSORGLEFT
 10
0.0
 20
0.0
 30
0.0
  9
$UCSORGRIGHT
 10
0.0
 20
0.0
 30
0.0
  9
$UCSORGFRONT
 10
0.0
 20
0.0
 30
0.0
  9
$UCSORGBACK
 10
0.0
 20
0.0
 30
0.0
  9
$PUCSBASE
  2

  9
$PUCSNAME
  2

  9
$PUCSORG
 10
0.0
 20
0.0
 30
0.0
  9
$PUCSXDIR
 10
1.0
 20
0.0
 30
0.0
  9
$PUCSYDIR
 10
0.0
 20
1.0
 30
0.0
  9
$PUCSORTHOREF
  2

  9
$PUCSORTHOVIEW
 70
     0
  9
$PUCSORGTOP
 10
0.0
 20
0.0
 30
0.0
  9
$PUCSORGBOTTOM
 10
0.0
 20
0.0
 30
0.0
  9
$PUCSORGLEFT
 10
0.0
 20
0.0
 30
0.0
  9
$PUCSORGRIGHT
 10
0.0
 20
0.0
 30
0.0
  9
$PUCSORGFRONT
 10
0.0
 20
0.0
 30
0.0
  9
$PUCSORGBACK
 10
0.0
 20
0.0
 30
0.0
  9
$USERI1
 70
     0
  9
$USERI2
 70
     0
  9
$USERI3
 70
     0
  9
$USERI4
 70
     0
  9
$USERI5
 70
     0
  9
$USERR1
 40
0.0
  9
$USERR2
 40
0.0
  9
$USERR3
 40
0.0
  9
$USERR4
 40
0.0
  9
$USERR5
 40
0.0
  9
$WORLDVIEW
 70
     1
  9
$SHADEDGE
 70
     3
  9
$SHADEDIF
 70
    70
  9
$TILEMODE
 70
     1
  9
$MAXACTVP
 70
    64
  9
$PINSBASE
 10
0.0
 20
0.0
 30
0.0
  9
$PLIMCHECK
 70
     0
  9
$PEXTMIN
 10
1.000000000000000E+20
 20
1.000000000000000E+20
 30
1.000000000000000E+20
  9
$PEXTMAX
 10
-1.000000000000000E+20
 20
-1.000000000000000E+20
 30
-1.000000000000000E+20
  9
$PLIMMIN
 10
0.0
 20
0.0
  9
$PLIMMAX
 10
12.0
 20
9.0
  9
$UNITMODE
 70
     0
  9
$VISRETAIN
 70
     1
  9
$PLINEGEN
 70
     0
  9
$PSLTSCALE
 70
     1
  9
$TREEDEPTH
 70
  3020
  9
$CMLSTYLE
  2
Standard
  9
$CMLJUST
 70
     0
  9
$CMLSCALE
 40
1.0
  9
$PROXYGRAPHICS
 70
     1
  9
$MEASUREMENT
 70
     0
  9
$CELWEIGHT
370
    -1
  9
$ENDCAPS
280
     0
  9
$JOINSTYLE
280
     0
  9
$LWDISPLAY
290
     1
  9
$INSUNITS
 70
     1
  9
$HYPERLINKBASE
  1

  9
$STYLESHEET
  1

  9
$XEDIT
290
     1
  9
$CEPSNTYPE
380
     0
  9
$PSTYLEMODE
290
     1
  9
$FINGERPRINTGUID
  2
{6494BD27-2A61-447E-8069-51792F17AAEE}
  9
$VERSIONGUID
  2
{FAEB1C32-E019-11D5-929B-00C0DF256EC4}
  9
$EXTNAMES
290
     1
  9
$PSVPSCALE
 40
0.0
  9
$OLESTARTUP
290
     0
  9
$SORTENTS
280
   127
  9
$INDEXCTL
280
     0
  9
$HIDETEXT
280
     1
  9
$XCLIPFRAME
290
     0
  9
$HALOGAP
280
     0
  9
$OBSCOLOR
 70
   257
  9
$OBSLTYPE
280
     0
  9
$INTERSECTIONDISPLAY
280
     0
  9
$INTERSECTIONCOLOR
 70
   257
  9
$DIMASSOC
280
     2
  9
$PROJECTNAME
  1

  0
ENDSEC
  0
SECTION
  2
CLASSES
  0
CLASS
  1
ACDBDICTIONARYWDFLT
  2
AcDbDictionaryWithDefault
  3
ObjectDBX Classes
 90
        0
 91
        3
280
     0
281
     0
  0
CLASS
  1
VISUALSTYLE
  2
AcDbVisualStyle
  3
ObjectDBX Classes
 90
     4095
 91
        3
280
     0
281
     0
  0
CLASS
  1
IMAGEDEF
  2
AcDbRasterImageDef
  3
ISM
 90
        0
 91
        3
280
     0
281
     0
  0
CLASS
  1
RASTERVARIABLES
  2
AcDbRasterVariables
  3
ISM
 90
        0
 91
        3
280
     0
281
     0
  0
CLASS
  1
IMAGE
  2
AcDbRasterImage
  3
ISM
 90
      127
 91
        4
280
     0
281
     1
  0
CLASS
  1
IMAGEDEF_REACTOR
  2
AcDbRasterImageDefReactor
  3
ISM
 90
        1
 91
        3
280
     0
281
     0
  0
ENDSEC
  0
SECTION
  2
TABLES
  0
TABLE
  2
VPORT
  5
8
330
0
100
AcDbSymbolTable
 70
     1
  0
VPORT
  5
29
330
8
100
AcDbSymbolTableRecord
100
AcDbViewportTableRecord
  2
*Active
 70
     0
 10
0.0
 20
0.0
 11
1.0
 21
1.0
 12
0.0
 22
0.0
 13
0.0
 23
0.0
 14
0.5
 24
0.5
 15
0.5
 25
0.5
 16
0.0
 26
0.0
 36
1.0
 17
105.00020623182
 27
148.5001637099431
 37
0.0
 40
297.0003274198861
 41
0.7070713163448828
 42
50.0
 43
0.0
 44
0.0
 50
0.0
 51
0.0
 71
     0
 72
   100
 73
     1
 74
     3
 75
     0
 76
     0
 77
     0
 78
     0
281
     0
 65
     1
110
0.0
120
0.0
130
0.0
111
1.0
121
0.0
131
0.0
112
0.0
122
1.0
132
0.0
 79
     0
146
0.0
  0
ENDTAB
  0
TABLE
  2
LTYPE
  5
5
330
0
100
AcDbSymbolTable
 70
     3
  0
LTYPE
  5
14
330
5
100
AcDbSymbolTableRecord
100
AcDbLinetypeTableRecord
  2
ByBlock
 70
     0
  3

 72
    65
 73
     0
 40
0.0
  0
LTYPE
  5
15
330
5
100
AcDbSymbolTableRecord
100
AcDbLinetypeTableRecord
  2
ByLayer
 70
     0
  3

 72
    65
 73
     0
 40
0.0
  0
LTYPE
  5
16
330
5
100
AcDbSymbolTableRecord
100
AcDbLinetypeTableRecord
  2
Continuous
 70
     0
  3
Solid line
 72
    65
 73
     0
 40
0.0
  0
LTYPE
  5
264
330
5
100
AcDbSymbolTableRecord
100
AcDbLinetypeTableRecord
  2
AI-Linetype-1
 70
     0
  3
Adobe Illustrator Linetype No. 1
 72
    65
 73
     4
 40
9.575806333552654
 49
1.59596777833133
 74
     0
 49
-1.59596777833133
 74
     0
 49
4.787902998558663
 74
     0
 49
-1.59596777833133
 74
     0
  0
LTYPE
  5
27D
330
5
100
AcDbSymbolTableRecord
100
AcDbLinetypeTableRecord
  2
AI-Linetype-2
 70
     0
  3
Adobe Illustrator Linetype No. 2
 72
    65
 73
     4
 40
9.575806333552654
 49
1.59596777833133
 74
     0
 49
-1.59596777833133
 74
     0
 49
4.787902998558663
 74
     0
 49
-1.59596777833133
 74
     0
  0
ENDTAB
  0
TABLE
  2
LAYER
  5
2
330
0
100
AcDbSymbolTable
 70
     2
  0
LAYER
  5
10
330
2
100
AcDbSymbolTableRecord
100
AcDbLayerTableRecord
  2
0
 70
     0
 62
     7
  6
Continuous
370
    -3
390
F
  0
LAYER
  5
3B
330
2
100
AcDbSymbolTableRecord
100
AcDbLayerTableRecord
  2
Layer 1
 70
     0
 62
     7
  6
Continuous
370
    -3
390
F
  0
ENDTAB
  0
TABLE
  2
STYLE
  5
3
330
0
100
AcDbSymbolTable
 70
     1
  0
STYLE
  5
11
330
3
100
AcDbSymbolTableRecord
100
AcDbTextStyleTableRecord
  2
Standard
 70
     0
 40
0.0
 41
1.0
 50
0.0
 71
     0
 42
0.2
  3
txt
  4

  0
ENDTAB
  0
TABLE
  2
VIEW
  5
6
330
0
100
AcDbSymbolTable
 70
     0
  0
ENDTAB
  0
TABLE
  2
UCS
  5
7
330
0
100
AcDbSymbolTable
 70
     0
  0
ENDTAB
  0
TABLE
  2
APPID
  5
9
330
0
100
AcDbSymbolTable
 70
     1
  0
APPID
  5
12
330
9
100
AcDbSymbolTableRecord
100
AcDbRegAppTableRecord
  2
ACAD
 70
     0
  0
ENDTAB
  0
TABLE
  2
DIMSTYLE
  5
A
330
0
100
AcDbSymbolTable
 70
     1
100
AcDbDimStyleTable
  0
DIMSTYLE
105
27
330
A
100
AcDbSymbolTableRecord
100
AcDbDimStyleTableRecord
  2
Standard
 70
     0
340
11
  0
ENDTAB
  0
TABLE
  2
BLOCK_RECORD
  5
1
330
0
100
AcDbSymbolTable
 70
     6
  0
BLOCK_RECORD
  5
1F
330
1
100
AcDbSymbolTableRecord
100
AcDbBlockTableRecord
  2
*Model_Space
340
22
  0
BLOCK_RECORD
  5
1B
330
1
100
AcDbSymbolTableRecord
100
AcDbBlockTableRecord
  2
*Paper_Space
340
1E
  0
BLOCK_RECORD
  5
23
330
1
100
AcDbSymbolTableRecord
100
AcDbBlockTableRecord
  2
*Paper_Space0
340
26
  0
BLOCK_RECORD
  5
3C
330
1
100
AcDbSymbolTableRecord
100
AcDbBlockTableRecord
  2
block 2
340
0
102
{BLKREFS
331
3D
102
}
  0
BLOCK_RECORD
  5
A8
330
1
100
AcDbSymbolTableRecord
100
AcDbBlockTableRecord
  2
block 3
340
0
102
{BLKREFS
331
A9
102
}
  0
BLOCK_RECORD
  5
AE
330
1
100
AcDbSymbolTableRecord
100
AcDbBlockTableRecord
  2
block 4
340
0
102
{BLKREFS
331
AF
102
}
  0
BLOCK_RECORD
  5
B2
330
1
100
AcDbSymbolTableRecord
100
AcDbBlockTableRecord
  2
block 5
340
0
102
{BLKREFS
331
B3
102
}
  0
BLOCK_RECORD
  5
B6
330
1
100
AcDbSymbolTableRecord
100
AcDbBlockTableRecord
  2
block 6
340
0
102
{BLKREFS
331
B7
102
}
  0
ENDTAB
  0
ENDSEC
  0
SECTION
  2
BLOCKS
  0
BLOCK
  5
20
330
1F
100
AcDbEntity
  8
0
100
AcDbBlockBegin
  2
*Model_Space
 70
     0
 71
     0
 10
0.0
 20
0.0
 30
0.0
  3
*Model_Space
  1

  0
ENDBLK
  5
21
330
1F
100
AcDbEntity
  8
0
100
AcDbBlockEnd
  0
BLOCK
  5
1C
330
1B
100
AcDbEntity
 67
     1
  8
0
100
AcDbBlockBegin
  2
*Paper_Space
 70
     0
 71
     0
 10
0.0
 20
0.0
 30
0.0
  3
*Paper_Space
  1

  0
ENDBLK
  5
1D
330
1B
100
AcDbEntity
 67
     1
  8
0
100
AcDbBlockEnd
  0
BLOCK
  5
24
330
23
100
AcDbEntity
  8
0
100
AcDbBlockBegin
  2
*Paper_Space0
 70
     0
 71
     0
 10
0.0
 20
0.0
 30
0.0
  3
*Paper_Space0
  1

  0
ENDBLK
  5
25
330
23
100
AcDbEntity
  8
0
100
AcDbBlockEnd
  0
BLOCK
  5
3E
330
3C
100
AcDbEntity
  8
0
100
AcDbBlockBegin
  2
block 2
 70
     0
 71
     0
 10
0.0
 20
0.0
 30
0.0
  3
block 2
  1

  0
IMAGE
  5
43
330
3C
100
AcDbEntity
  8
Layer 1
 92
        8
310
0800000000000000
100
AcDbRasterImage
 90
        0
 10
11.56967163085938
 20
27.87821960449219
 30
0.0
 11
0.2650368375132283
 21
0.0
 31
0.0
 12
0.0
 22
0.2706950187683105
 32
0.0
 13
251.0
 23
40.0
340
41
 70
     3
280
     0
281
    50
282
    50
283
     0
360
44
 71
     1
 91
        2
 14
-0.5
 24
-0.5
 14
250.5
 24
39.5
  0
POLYLINE
  5
45
330
3C
100
AcDbEntity
  8
Layer 1
370
     0
100
AcDb2dPolyline
 66
     1
 10
0.0
 20
0.0
 30
0.0
  0
VERTEX
  5
46
330
45
100
AcDbEntity
  8
Layer 1
370
     0
100
AcDbVertex
100
AcDb2dVertex
 10
11.56967180056274
 20
27.87807556720178
 30
0.0
  0
VERTEX
  5
47
330
45
100
AcDbEntity
  8
Layer 1
370
     0
100
AcDbVertex
100
AcDb2dVertex
 10
78.09382048725135
 20
27.87807556720178
 30
0.0
  0
VERTEX
  5
48
330
45
100
AcDbEntity
  8
Layer 1
370
     0
100
AcDbVertex
100
AcDb2dVertex
 10
78.09382048725135
 20
38.70601782047537
 30
0.0
  0
VERTEX
  5
49
330
45
100
AcDbEntity
  8
Layer 1
370
     0
100
AcDbVertex
100
AcDb2dVertex
 10
11.56967180056274
 20
38.70601782047537
 30
0.0
  0
VERTEX
  5
4A
330
45
100
AcDbEntity
  8
Layer 1
370
     0
100
AcDbVertex
100
AcDb2dVertex
 10
11.56967180056274
 20
27.87807556720178
 30
0.0
  0
SEQEND
  5
4B
330
45
100
AcDbEntity
  8
Layer 1
370
     0
  0
ENDBLK
  5
3F
330
3C
100
AcDbEntity
  8
0
100
AcDbBlockEnd
  0
BLOCK
  5
AA
330
A8
100
AcDbEntity
  8
0
100
AcDbBlockBegin
  2
block 3
 70
     0
 71
     0
 10
0.0
 20
0.0
 30
0.0
  3
block 3
  1

  0
MTEXT
  5
AC
330
A8
100
AcDbEntity
  8
Layer 1
 62
     7
420
 16777215
100
AcDbMText
 10
120.7072681848069
 20
24.51566015543117
 30
0.0
 40
4.653106244767444
 41
0.0
 71
     7
 72
     1
  1
\fArial,Bold|b0|i0|c0|p34;\W0.979537;65mm 45  Junction
 73
     1
 44
1.0
  0
SPLINE
  5
AD
330
A8
100
AcDbEntity
  8
Layer 1
 62
     7
420
 16777215
370
    35
100
AcDbSpline
210
0.0
220
0.0
230
1.0
 70
    11
 71
     3
 72
    17
 73
    13
 74
     0
 42
0.0000000001
 43
0.0000000001
 40
0.0
 40
0.0
 40
0.0
 40
0.0
 40
1.0
 40
1.0
 40
1.0
 40
2.0
 40
2.0
 40
2.0
 40
3.0
 40
3.0
 40
3.0
 40
4.0
 40
4.0
 40
4.0
 40
4.0
 10
148.2391114273335
 20
28.42653513026928
 30
0.0
 10
148.2391114273335
 20
28.12336652756865
 30
0.0
 10
147.9734943901946
 20
27.87807556720178
 30
0.0
 10
147.6458655934125
 20
27.87807556720178
 30
0.0
 10
147.3185813064061
 20
27.87807556720178
 30
0.0
 10
147.0529642692673
 20
28.12336652756865
 30
0.0
 10
147.0529642692673
 20
28.42653513026928
 30
0.0
 10
147.0529642692673
 20
28.72935922319411
 30
0.0
 10
147.3185813064061
 20
28.97465018356099
 30
0.0
 10
147.6458655934125
 20
28.97465018356099
 30
0.0
 10
147.9734943901946
 20
28.97465018356099
 30
0.0
 10
148.2391114273335
 20
28.72935922319411
 30
0.0
 10
148.2391114273335
 20
28.42653513026928
 30
0.0
  0
ENDBLK
  5
AB
330
A8
100
AcDbEntity
  8
0
100
AcDbBlockEnd
  0
BLOCK
  5
B0
330
AE
100
AcDbEntity
  8
0
100
AcDbBlockBegin
  2
block 4
 70
     0
 71
     0
 10
0.0
 20
0.0
 30
0.0
  3
block 4
  1

  0
INSERT
  5
B3
330
AE
100
AcDbEntity
  8
Layer 1
100
AcDbBlockReference
  2
block 5
 10
0.0
 20
0.0
 30
0.0
  0
POLYLINE
  5
2A1
330
AE
100
AcDbEntity
  8
Layer 1
370
     0
100
AcDb2dPolyline
 66
     1
 10
0.0
 20
0.0
 30
0.0
  0
VERTEX
  5
2A2
330
2A1
100
AcDbEntity
  8
Layer 1
370
     0
100
AcDbVertex
100
AcDb2dVertex
 10
16.22778847910274
 20
268.816843936441
 30
0.0
  0
VERTEX
  5
2A3
330
2A1
100
AcDbEntity
  8
Layer 1
370
     0
100
AcDbVertex
100
AcDb2dVertex
 10
200.025131905462
 20
268.816843936441
 30
0.0
  0
VERTEX
  5
2A4
330
2A1
100
AcDbEntity
  8
Layer 1
370
     0
100
AcDbVertex
100
AcDb2dVertex
 10
200.025131905462
 20
50.09447747896932
 30
0.0
  0
VERTEX
  5
2A5
330
2A1
100
AcDbEntity
  8
Layer 1
370
     0
100
AcDbVertex
100
AcDb2dVertex
 10
16.22778847910274
 20
50.09447747896932
 30
0.0
  0
VERTEX
  5
2A6
330
2A1
100
AcDbEntity
  8
Layer 1
370
     0
100
AcDbVertex
100
AcDb2dVertex
 10
16.22778847910274
 20
268.816843936441
 30
0.0
  0
SEQEND
  5
2A7
330
2A1
100
AcDbEntity
  8
Layer 1
370
     0
  0
ENDBLK
  5
B1
330
AE
100
AcDbEntity
  8
0
100
AcDbBlockEnd
  0
BLOCK
  5
B4
330
B2
100
AcDbEntity
  8
0
100
AcDbBlockBegin
  2
block 5
 70
     0
 71
     0
 10
0.0
 20
0.0
 30
0.0
  3
block 5
  1

  0
INSERT
  5
B7
330
B2
100
AcDbEntity
  8
Layer 1
100
AcDbBlockReference
  2
block 6
 10
0.0
 20
0.0
 30
0.0
  0
ENDBLK
  5
B5
330
B2
100
AcDbEntity
  8
0
100
AcDbBlockEnd
  0
BLOCK
  5
B8
330
B6
100
AcDbEntity
  8
0
100
AcDbBlockBegin
  2
block 6
 70
     0
 71
     0
 10
0.0
 20
0.0
 30
0.0
  3
block 6
  1

  0
MTEXT
  5
BA
330
B6
100
AcDbEntity
  8
Layer 1
 62
     7
420
 16777215
100
AcDbMText
 10
28.08185309958521
 20
158.9871274126224
 30
0.0
 40
2.314808876646545
 41
0.0
 71
     7
 72
     1
  1
\fHelvetica|b0|i0|c0|p34;\W1;184
 73
     1
 44
1.0
  0
POLYLINE
  5
BB
330
B6
100
AcDbEntity
  8
Layer 1
370
     0
100
AcDb2dPolyline
 66
     1
 10
0.0
 20
0.0
 30
0.0
  0
VERTEX
  5
BC
330
BB
100
AcDbEntity
  8
Layer 1
370
     0
100
AcDbVertex
100
AcDb2dVertex
 10
30.43847222091891
 20
240.5992539851921
 30
0.0
  0
VERTEX
  5
BD
330
BB
100
AcDbEntity
  8
Layer 1
370
     0
100
AcDbVertex
100
AcDb2dVertex
 10
31.09304079493163
 20
237.9806351793654
 30
0.0
  0
VERTEX
  5
BE
330
BB
100
AcDbEntity
  8
Layer 1
370
     0
100
AcDbVertex
100
AcDb2dVertex
 10
29.78390364690619
 20
237.9806351793654
 30
0.0
  0
VERTEX
  5
BF
330
BB
100
AcDbEntity
  8
Layer 1
370
     0
100
AcDbVertex
100
AcDb2dVertex
 10
30.43847222091891
 20
240.5992539851921
 30
0.0
  0
SEQEND
  5
C0
330
BB
100
AcDbEntity
  8
Layer 1
370
     0
  0
HATCH
  5
C1
330
B6
100
AcDbEntity
  8
Layer 1
 62
     7
420
 16777215
100
AcDbHatch
 10
0.0
 20
0.0
 30
0.0
210
0.0
220
0.0
230
1.0
  2
SOLID
 70
     1
 71
     0
 91
        1
 92
        1
 93
        3
 72
     1
 10
30.43847222091891
 20
240.5992539851921
 11
31.09304079493163
 21
237.9806351793654
 72
     1
 10
31.09304079493163
 20
237.9806351793654
 11
29.78390364690619
 21
237.9806351793654
 72
     1
 10
29.78390364690619
 20
237.9806351793654
 11
30.43847222091891
 21
240.5992539851921
 97
        0
 75
     2
 76
     1
 98
        0
  0
POLYLINE
  5
C2
330
B6
100
AcDbEntity
  8
Layer 1
370
     0
100
AcDb2dPolyline
 66
     1
 10
0.0
 20
0.0
 30
0.0
  0
VERTEX
  5
C3
330
C2
100
AcDbEntity
  8
Layer 1
370
     0
100
AcDbVertex
100
AcDb2dVertex
 10
30.43847222091891
 20
79.99379190076722
 30
0.0
  0
VERTEX
  5
C4
330
C2
100
AcDbEntity
  8
Layer 1
370
     0
100
AcDbVertex
100
AcDb2dVertex
 10
29.78390364690619
 20
82.6124107065939
 30
0.0
  0
VERTEX
  5
C5
330
C2
100
AcDbEntity
  8
Layer 1
370
     0
100
AcDbVertex
100
AcDb2dVertex
 10
31.09304079493163
 20
82.6124107065939
 30
0.0
  0
VERTEX
  5
C6
330
C2
100
AcDbEntity
  8
Layer 1
370
     0
100
AcDbVertex
100
AcDb2dVertex
 10
30.43847222091891
 20
79.99379190076722
 30
0.0
  0
SEQEND
  5
C7
330
C2
100
AcDbEntity
  8
Layer 1
370
     0
  0
HATCH
  5
C8
330
B6
100
AcDbEntity
  8
Layer 1
 62
     7
420
 16777215
100
AcDbHatch
 10
0.0
 20
0.0
 30
0.0
210
0.0
220
0.0
230
1.0
  2
SOLID
 70
     1
 71
     0
 91
        1
 92
        1
 93
        3
 72
     1
 10
30.43847222091891
 20
79.99379190076722
 11
29.78390364690619
 21
82.6124107065939
 72
     1
 10
29.78390364690619
 20
82.6124107065939
 11
31.09304079493163
 21
82.6124107065939
 72
     1
 10
31.09304079493163
 20
82.6124107065939
 11
30.43847222091891
 21
79.99379190076722
 97
        0
 75
     2
 76
     1
 98
        0
  0
MTEXT
  5
C9
330
B6
100
AcDbEntity
  8
Layer 1
 62
     7
420
 16777215
100
AcDbMText
 10
88.64701619432749
 20
67.43641057299686
 30
0.0
 40
2.314808876646545
 41
0.0
 71
     7
 72
     1
  1
\fHelvetica|b0|i0|c0|p34;\W1;75
 73
     1
 44
1.0
  0
POLYLINE
  5
CA
330
B6
100
AcDbEntity
  8
Layer 1
370
     0
100
AcDb2dPolyline
 66
     1
 10
0.0
 20
0.0
 30
0.0
  0
VERTEX
  5
CB
330
CA
100
AcDbEntity
  8
Layer 1
370
     0
100
AcDbVertex
100
AcDb2dVertex
 10
122.9500268252399
 20
68.7458922307981
 30
0.0
  0
VERTEX
  5
CC
330
CA
100
AcDbEntity
  8
Layer 1
370
     0
100
AcDbVertex
100
AcDb2dVertex
 10
120.3314080194132
 20
68.09132365678538
 30
0.0
  0
VERTEX
  5
CD
330
CA
100
AcDbEntity
  8
Layer 1
370
     0
100
AcDbVertex
100
AcDb2dVertex
 10
120.3314080194132
 20
69.40046080481082
 30
0.0
  0
VERTEX
  5
CE
330
CA
100
AcDbEntity
  8
Layer 1
370
     0
100
AcDbVertex
100
AcDb2dVertex
 10
122.9500268252399
 20
68.7458922307981
 30
0.0
  0
SEQEND
  5
CF
330
CA
100
AcDbEntity
  8
Layer 1
370
     0
  0
HATCH
  5
D0
330
B6
100
AcDbEntity
  8
Layer 1
 62
     7
420
 16777215
100
AcDbHatch
 10
0.0
 20
0.0
 30
0.0
210
0.0
220
0.0
230
1.0
  2
SOLID
 70
     1
 71
     0
 91
        1
 92
        1
 93
        3
 72
     1
 10
122.9500268252399
 20
68.7458922307981
 11
120.3314080194132
 21
68.09132365678538
 72
     1
 10
120.3314080194132
 20
68.09132365678538
 11
120.3314080194132
 21
69.40046080481082
 72
     1
 10
120.3314080194132
 20
69.40046080481082
 11
122.9500268252399
 21
68.7458922307981
 97
        0
 75
     2
 76
     1
 98
        0
  0
POLYLINE
  5
D1
330
B6
100
AcDbEntity
  8
Layer 1
370
     0
100
AcDb2dPolyline
 66
     1
 10
0.0
 20
0.0
 30
0.0
  0
VERTEX
  5
D2
330
D1
100
AcDbEntity
  8
Layer 1
370
     0
100
AcDbVertex
100
AcDb2dVertex
 10
57.48593471867612
 20
68.7458922307981
 30
0.0
  0
VERTEX
  5
D3
330
D1
100
AcDbEntity
  8
Layer 1
370
     0
100
AcDbVertex
100
AcDb2dVertex
 10
60.1043812696149
 20
69.40046080481082
 30
0.0
  0
VERTEX
  5
D4
330
D1
100
AcDbEntity
  8
Layer 1
370
     0
100
AcDbVertex
100
AcDb2dVertex
 10
60.1043812696149
 20
68.09132365678538
 30
0.0
  0
VERTEX
  5
D5
330
D1
100
AcDbEntity
  8
Layer 1
370
     0
100
AcDbVertex
100
AcDb2dVertex
 10
57.48593471867612
 20
68.7458922307981
 30
0.0
  0
SEQEND
  5
D6
330
D1
100
AcDbEntity
  8
Layer 1
370
     0
  0
HATCH
  5
D7
330
B6
100
AcDbEntity
  8
Layer 1
 62
     7
420
 16777215
100
AcDbHatch
 10
0.0
 20
0.0
 30
0.0
210
0.0
220
0.0
230
1.0
  2
SOLID
 70
     1
 71
     0
 91
        1
 92
        1
 93
        3
 72
     1
 10
57.48593471867612
 20
68.7458922307981
 11
60.1043812696149
 21
69.40046080481082
 72
     1
 10
60.1043812696149
 20
69.40046080481082
 11
60.1043812696149
 21
68.09132365678538
 72
     1
 10
60.1043812696149
 20
68.09132365678538
 11
57.48593471867612
 21
68.7458922307981
 97
        0
 75
     2
 76
     1
 98
        0
  0
POLYLINE
  5
D8
330
B6
100
AcDbEntity
  8
Layer 1
 62
     7
420
 16777215
370
     9
100
AcDb2dPolyline
 66
     1
 10
0.0
 20
0.0
 30
0.0
  0
VERTEX
  5
D9
330
D8
100
AcDbEntity
  8
Layer 1
 62
     7
420
 16777215
370
     9
100
AcDbVertex
100
AcDb2dVertex
 10
140.4848853937133
 20
249.6183476606479
 30
0.0
  0
VERTEX
  5
DA
330
D8
100
AcDbEntity
  8
Layer 1
 62
     7
420
 16777215
370
     9
100
AcDbVertex
100
AcDb2dVertex
 10
140.4848853937133
 20
249.182026029602
 30
0.0
  0
VERTEX
  5
DB
330
D8
100
AcDbEntity
  8
Layer 1
 62
     7
420
 16777215
370
     9
100
AcDbVertex
100
AcDb2dVertex
 10
140.7033045915681
 20
248.9637790866352
 30
0.0
  0
VERTEX
  5
DC
330
D8
100
AcDbEntity
  8
Layer 1
 62
     7
420
 16777215
370
     9
100
AcDbVertex
100
AcDb2dVertex
 10
141.139453967726
 20
248.9637790866352
 30
0.0
  0
VERTEX
  5
DD
330
D8
100
AcDbEntity
  8
Layer 1
 62
     7
420
 16777215
370
     9
100
AcDbVertex
100
AcDb2dVertex
 10
141.3578731655808
 20
249.182026029602
 30
0.0
  0
VERTEX
  5
DE
330
D8
100
AcDbEntity
  8
Layer 1
 62
     7
420
 16777215
370
     9
100
AcDbVertex
100
AcDb2dVertex
 10
141.3578731655808
 20
249.6183476606479
 30
0.0
  0
VERTEX
  5
DF
330
D8
100
AcDbEntity
  8
Layer 1
 62
     7
420
 16777215
370
     9
100
AcDbVertex
100
AcDb2dVertex
 10
141.139453967726
 20
249.8367668585027
 30
0.0
  0
VERTEX
  5
E0
330
D8
100
AcDbEntity
  8
Layer 1
 62
     7
420
 16777215
370
     9
100
AcDbVertex
100
AcDb2dVertex
 10
140.7033045915681
 20
249.8367668585027
 30
0.0
  0
VERTEX
  5
E1
330
D8
100
AcDbEntity
  8
Layer 1
 62
     7
420
 16777215
370
     9
100
AcDbVertex
100
AcDb2dVertex
 10
140.4848853937133
 20
249.6183476606479
 30
0.0
  0
SEQEND
  5
E2
330
D8
100
AcDbEntity
  8
Layer 1
370
     9
  0
MTEXT
  5
E3
330
B6
100
AcDbEntity
  8
Layer 1
 62
     7
420
 16777215
100
AcDbMText
 10
137.3429562384523
 20
246.5634072237754
 30
0.0
 40
2.314808876646545
 41
0.0
 71
     7
 72
     1
  1
\fHelvetica|b0|i0|c0|p34;\W1;45
 73
     1
 44
1.0
  0
POLYLINE
  5
E4
330
B6
100
AcDbEntity
  8
Layer 1
370
     0
100
AcDb2dPolyline
 66
     1
 10
0.0
 20
0.0
 30
0.0
  0
VERTEX
  5
E5
330
E4
100
AcDbEntity
  8
Layer 1
370
     0
100
AcDbVertex
100
AcDb2dVertex
 10
181.8088330004638
 20
219.7943086248615
 30
0.0
  0
VERTEX
  5
E6
330
E4
100
AcDbEntity
  8
Layer 1
370
     0
100
AcDbVertex
100
AcDb2dVertex
 10
179.4802914258575
 20
221.1594286114538
 30
0.0
  0
VERTEX
  5
E7
330
E4
100
AcDbEntity
  8
Layer 1
370
     0
100
AcDbVertex
100
AcDb2dVertex
 10
180.3970319392511
 20
222.0946003978525
 30
0.0
  0
VERTEX
  5
E8
330
E4
100
AcDbEntity
  8
Layer 1
370
     0
100
AcDbVertex
100
AcDb2dVertex
 10
181.8088330004638
 20
219.7943086248615
 30
0.0
  0
SEQEND
  5
E9
330
E4
100
AcDbEntity
  8
Layer 1
370
     0
  0
HATCH
  5
EA
330
B6
100
AcDbEntity
  8
Layer 1
 62
     7
420
 16777215
100
AcDbHatch
 10
0.0
 20
0.0
 30
0.0
210
0.0
220
0.0
230
1.0
  2
SOLID
 70
     1
 71
     0
 91
        1
 92
        1
 93
        3
 72
     1
 10
181.8088330004638
 20
219.7943086248615
 11
179.4802914258575
 21
221.1594286114538
 72
     1
 10
179.4802914258575
 20
221.1594286114538
 11
180.3970319392511
 21
222.0946003978525
 72
     1
 10
180.3970319392511
 20
222.0946003978525
 11
181.8088330004638
 21
219.7943086248615
 97
        0
 75
     2
 76
     1
 98
        0
  0
POLYLINE
  5
EB
330
B6
100
AcDbEntity
  8
Layer 1
370
     0
100
AcDb2dPolyline
 66
     1
 10
0.0
 20
0.0
 30
0.0
  0
VERTEX
  5
EC
330
EB
100
AcDbEntity
  8
Layer 1
370
     0
100
AcDbVertex
100
AcDb2dVertex
 10
90.21780851707013
 20
257.7324141550872
 30
0.0
  0
VERTEX
  5
ED
330
EB
100
AcDbEntity
  8
Layer 1
370
     0
100
AcDbVertex
100
AcDb2dVertex
 10
92.84297300863693
 20
258.3606277312515
 30
0.0
  0
VERTEX
  5
EE
330
EB
100
AcDbEntity
  8
Layer 1
370
     0
100
AcDbVertex
100
AcDb2dVertex
 10
92.82970938226877
 20
257.0513183283381
 30
0.0
  0
VERTEX
  5
EF
330
EB
100
AcDbEntity
  8
Layer 1
370
     0
100
AcDbVertex
100
AcDb2dVertex
 10
90.21780851707013
 20
257.7324141550872
 30
0.0
  0
SEQEND
  5
F0
330
EB
100
AcDbEntity
  8
Layer 1
370
     0
  0
HATCH
  5
F1
330
B6
100
AcDbEntity
  8
Layer 1
 62
     7
420
 16777215
100
AcDbHatch
 10
0.0
 20
0.0
 30
0.0
210
0.0
220
0.0
230
1.0
  2
SOLID
 70
     1
 71
     0
 91
        1
 92
        1
 93
        3
 72
     1
 10
90.21780851707013
 20
257.7324141550872
 11
92.84297300863693
 21
258.3606277312515
 72
     1
 10
92.84297300863693
 20
258.3606277312515
 11
92.82970938226877
 21
257.0513183283381
 72
     1
 10
92.82970938226877
 20
257.0513183283381
 11
90.21780851707013
 21
257.7324141550872
 97
        0
 75
     2
 76
     1
 98
        0
  0
MTEXT
  5
F2
330
B6
100
AcDbEntity
  8
Layer 1
 62
     7
420
 16777215
100
AcDbMText
 10
122.4146586336527
 20
59.16610889523404
 30
0.0
 40
2.314808876646545
 41
0.0
 71
     7
 72
     1
  1
\fHelvetica|b0|i0|c0|p34;\W1;154
 73
     1
 44
1.0
  0
POLYLINE
  5
F3
330
B6
100
AcDbEntity
  8
Layer 1
370
     0
100
AcDb2dPolyline
 66
     1
 10
0.0
 20
0.0
 30
0.0
  0
VERTEX
  5
F4
330
F3
100
AcDbEntity
  8
Layer 1
370
     0
100
AcDbVertex
100
AcDb2dVertex
 10
57.48593471867612
 20
60.47524604325948
 30
0.0
  0
VERTEX
  5
F5
330
F3
100
AcDbEntity
  8
Layer 1
370
     0
100
AcDbVertex
100
AcDb2dVertex
 10
60.1043812696149
 20
61.1298146172722
 30
0.0
  0
VERTEX
  5
F6
330
F3
100
AcDbEntity
  8
Layer 1
370
     0
100
AcDbVertex
100
AcDb2dVertex
 10
60.1043812696149
 20
59.82067746924676
 30
0.0
  0
VERTEX
  5
F7
330
F3
100
AcDbEntity
  8
Layer 1
370
     0
100
AcDbVertex
100
AcDb2dVertex
 10
57.48593471867612
 20
60.47524604325948
 30
0.0
  0
SEQEND
  5
F8
330
F3
100
AcDbEntity
  8
Layer 1
370
     0
  0
HATCH
  5
F9
330
B6
100
AcDbEntity
  8
Layer 1
 62
     7
420
 16777215
100
AcDbHatch
 10
0.0
 20
0.0
 30
0.0
210
0.0
220
0.0
230
1.0
  2
SOLID
 70
     1
 71
     0
 91
        1
 92
        1
 93
        3
 72
     1
 10
57.48593471867612
 20
60.47524604325948
 11
60.1043812696149
 21
61.1298146172722
 72
     1
 10
60.1043812696149
 20
61.1298146172722
 11
60.1043812696149
 21
59.82067746924676
 72
     1
 10
60.1043812696149
 20
59.82067746924676
 11
57.48593471867612
 21
60.47524604325948
 97
        0
 75
     2
 76
     1
 98
        0
  0
POLYLINE
  5
FA
330
B6
100
AcDbEntity
  8
Layer 1
370
     0
100
AcDb2dPolyline
 66
     1
 10
0.0
 20
0.0
 30
0.0
  0
VERTEX
  5
FB
330
FA
100
AcDbEntity
  8
Layer 1
370
     0
100
AcDbVertex
100
AcDb2dVertex
 10
192.0566207912966
 20
60.47524604325948
 30
0.0
  0
VERTEX
  5
FC
330
FA
100
AcDbEntity
  8
Layer 1
370
     0
100
AcDbVertex
100
AcDb2dVertex
 10
189.4380019854699
 20
59.82067746924676
 30
0.0
  0
VERTEX
  5
FD
330
FA
100
AcDbEntity
  8
Layer 1
370
     0
100
AcDbVertex
100
AcDb2dVertex
 10
189.4380019854699
 20
61.1298146172722
 30
0.0
  0
VERTEX
  5
FE
330
FA
100
AcDbEntity
  8
Layer 1
370
     0
100
AcDbVertex
100
AcDb2dVertex
 10
192.0566207912966
 20
60.47524604325948
 30
0.0
  0
SEQEND
  5
FF
330
FA
100
AcDbEntity
  8
Layer 1
370
     0
  0
HATCH
  5
100
330
B6
100
AcDbEntity
  8
Layer 1
 62
     7
420
 16777215
100
AcDbHatch
 10
0.0
 20
0.0
 30
0.0
210
0.0
220
0.0
230
1.0
  2
SOLID
 70
     1
 71
     0
 91
        1
 92
        1
 93
        3
 72
     1
 10
192.0566207912966
 20
60.47524604325948
 11
189.4380019854699
 21
59.82067746924676
 72
     1
 10
189.4380019854699
 20
59.82067746924676
 11
189.4380019854699
 21
61.1298146172722
 72
     1
 10
189.4380019854699
 20
61.1298146172722
 11
192.0566207912966
 21
60.47524604325948
 97
        0
 75
     2
 76
     1
 98
        0
  0
POLYLINE
  5
101
330
B6
100
AcDbEntity
  8
Layer 1
 62
     7
420
 16777215
370
    25
100
AcDb2dPolyline
 66
     1
 10
0.0
 20
0.0
 30
0.0
  0
VERTEX
  5
102
330
101
100
AcDbEntity
  8
Layer 1
 62
     7
420
 16777215
370
    25
100
AcDbVertex
100
AcDb2dVertex
 10
-61.15565285045691
 20
24.51634917498276
 30
0.0
  0
VERTEX
  5
103
330
101
100
AcDbEntity
  8
Layer 1
 62
     7
420
 16777215
370
    25
100
AcDbVertex
100
AcDb2dVertex
 10
-61.15565285045691
 20
283.7544433051871
 30
0.0
  0
SEQEND
  5
104
330
101
100
AcDbEntity
  8
Layer 1
370
    25
  0
POLYLINE
  5
105
330
B6
100
AcDbEntity
  8
Layer 1
 62
     7
420
 16777215
370
    25
100
AcDb2dPolyline
 66
     1
 10
0.0
 20
0.0
 30
0.0
  0
VERTEX
  5
106
330
105
100
AcDbEntity
  8
Layer 1
 62
     7
420
 16777215
370
    25
100
AcDbVertex
100
AcDb2dVertex
 10
-61.15565285045691
 20
24.51634917498276
 30
0.0
  0
VERTEX
  5
107
330
105
100
AcDbEntity
  8
Layer 1
 62
     7
420
 16777215
370
    25
100
AcDbVertex
100
AcDb2dVertex
 10
305.4434007502107
 20
24.51634917498276
 30
0.0
  0
SEQEND
  5
108
330
105
100
AcDbEntity
  8
Layer 1
370
    25
  0
POLYLINE
  5
109
330
B6
100
AcDbEntity
  8
Layer 1
 62
     7
420
 16777215
370
    25
100
AcDb2dPolyline
 66
     1
 10
0.0
 20
0.0
 30
0.0
  0
VERTEX
  5
10A
330
109
100
AcDbEntity
  8
Layer 1
 62
     7
420
 16777215
370
    25
100
AcDbVertex
100
AcDb2dVertex
 10
-61.15565285045691
 20
283.7544433051871
 30
0.0
  0
VERTEX
  5
10B
330
109
100
AcDbEntity
  8
Layer 1
 62
     7
420
 16777215
370
    25
100
AcDbVertex
100
AcDb2dVertex
 10
305.4434007502107
 20
283.7544433051871
 30
0.0
  0
SEQEND
  5
10C
330
109
100
AcDbEntity
  8
Layer 1
370
    25
  0
POLYLINE
  5
10D
330
B6
100
AcDbEntity
  8
Layer 1
 62
     7
420
 16777215
370
    25
100
AcDb2dPolyline
 66
     1
 10
0.0
 20
0.0
 30
0.0
  0
VERTEX
  5
10E
330
10D
100
AcDbEntity
  8
Layer 1
 62
     7
420
 16777215
370
    25
100
AcDbVertex
100
AcDb2dVertex
 10
305.4434007502107
 20
24.51634917498276
 30
0.0
  0
VERTEX
  5
10F
330
10D
100
AcDbEntity
  8
Layer 1
 62
     7
420
 16777215
370
    25
100
AcDbVertex
100
AcDb2dVertex
 10
305.4434007502107
 20
283.7544433051871
 30
0.0
  0
SEQEND
  5
110
330
10D
100
AcDbEntity
  8
Layer 1
370
    25
  0
POLYLINE
  5
111
330
B6
100
AcDbEntity
  8
Layer 1
 62
     7
420
 16777215
370
    25
100
AcDb2dPolyline
 66
     1
 10
0.0
 20
0.0
 30
0.0
  0
VERTEX
  5
112
330
111
100
AcDbEntity
  8
Layer 1
 62
     7
420
 16777215
370
    25
100
AcDbVertex
100
AcDb2dVertex
 10
192.0566207912966
 20
60.47524604325948
 30
0.0
  0
VERTEX
  5
113
330
111
100
AcDbEntity
  8
Layer 1
 62
     7
420
 16777215
370
    25
100
AcDbVertex
100
AcDb2dVertex
 10
128.4370340243455
 20
60.47524604325948
 30
0.0
  0
SEQEND
  5
114
330
111
100
AcDbEntity
  8
Layer 1
370
    25
  0
POLYLINE
  5
115
330
B6
100
AcDbEntity
  8
Layer 1
 62
     7
420
 16777215
370
    25
100
AcDb2dPolyline
 66
     1
 10
0.0
 20
0.0
 30
0.0
  0
VERTEX
  5
116
330
115
100
AcDbEntity
  8
Layer 1
 62
     7
420
 16777215
370
    25
100
AcDbVertex
100
AcDb2dVertex
 10
57.48593471867612
 20
60.47524604325948
 30
0.0
  0
VERTEX
  5
117
330
115
100
AcDbEntity
  8
Layer 1
 62
     7
420
 16777215
370
    25
100
AcDbVertex
100
AcDb2dVertex
 10
121.1051769758514
 20
60.47524604325948
 30
0.0
  0
SEQEND
  5
118
330
115
100
AcDbEntity
  8
Layer 1
370
    25
  0
POLYLINE
  5
119
330
B6
100
AcDbEntity
  8
Layer 1
 62
     7
420
 16777215
370
    25
100
AcDb2dPolyline
 66
     1
 10
0.0
 20
0.0
 30
0.0
  0
VERTEX
  5
11A
330
119
100
AcDbEntity
  8
Layer 1
 62
     7
420
 16777215
370
    25
100
AcDbVertex
100
AcDb2dVertex
 10
30.43847222091891
 20
240.5992539851921
 30
0.0
  0
VERTEX
  5
11B
330
119
100
AcDbEntity
  8
Layer 1
 62
     7
420
 16777215
370
    25
100
AcDbVertex
100
AcDb2dVertex
 10
30.43847222091891
 20
162.9148833664745
 30
0.0
  0
SEQEND
  5
11C
330
119
100
AcDbEntity
  8
Layer 1
370
    25
  0
POLYLINE
  5
11D
330
B6
100
AcDbEntity
  8
Layer 1
 62
     7
420
 16777215
370
    25
100
AcDb2dPolyline
 66
     1
 10
0.0
 20
0.0
 30
0.0
  0
VERTEX
  5
11E
330
11D
100
AcDbEntity
  8
Layer 1
 62
     7
420
 16777215
370
    25
100
AcDbVertex
100
AcDb2dVertex
 10
30.43847222091891
 20
79.99379190076722
 30
0.0
  0
VERTEX
  5
11F
330
11D
100
AcDbEntity
  8
Layer 1
 62
     7
420
 16777215
370
    25
100
AcDbVertex
100
AcDb2dVertex
 10
30.43847222091891
 20
157.677818009709
 30
0.0
  0
SEQEND
  5
120
330
11D
100
AcDbEntity
  8
Layer 1
370
    25
  0
POLYLINE
  5
121
330
B6
100
AcDbEntity
  8
Layer 1
 62
     7
420
 16777215
370
    25
100
AcDb2dPolyline
 66
     1
 10
0.0
 20
0.0
 30
0.0
  0
VERTEX
  5
122
330
121
100
AcDbEntity
  8
Layer 1
 62
     7
420
 16777215
370
    25
100
AcDbVertex
100
AcDb2dVertex
 10
122.9500268252399
 20
68.7458922307981
 30
0.0
  0
VERTEX
  5
123
330
121
100
AcDbEntity
  8
Layer 1
 62
     7
420
 16777215
370
    25
100
AcDbVertex
100
AcDb2dVertex
 10
93.09859926227769
 20
68.7458922307981
 30
0.0
  0
SEQEND
  5
124
330
121
100
AcDbEntity
  8
Layer 1
370
    25
  0
POLYLINE
  5
125
330
B6
100
AcDbEntity
  8
Layer 1
 62
     7
420
 16777215
370
    25
100
AcDb2dPolyline
 66
     1
 10
0.0
 20
0.0
 30
0.0
  0
VERTEX
  5
126
330
125
100
AcDbEntity
  8
Layer 1
 62
     7
420
 16777215
370
    25
100
AcDbVertex
100
AcDb2dVertex
 10
57.48593471867612
 20
68.7458922307981
 30
0.0
  0
VERTEX
  5
127
330
125
100
AcDbEntity
  8
Layer 1
 62
     7
420
 16777215
370
    25
100
AcDbVertex
100
AcDb2dVertex
 10
87.33770679141415
 20
68.7458922307981
 30
0.0
  0
SEQEND
  5
128
330
125
100
AcDbEntity
  8
Layer 1
370
    25
  0
POLYLINE
  5
129
330
B6
100
AcDbEntity
  8
Layer 1
 62
     7
420
 16777215
370
    25
100
AcDb2dPolyline
 66
     1
 10
0.0
 20
0.0
 30
0.0
  0
VERTEX
  5
12A
330
129
100
AcDbEntity
  8
Layer 1
 62
     7
420
 16777215
370
    25
100
AcDbVertex
100
AcDb2dVertex
 10
56.17662531576278
 20
79.99379190076722
 30
0.0
  0
VERTEX
  5
12B
330
129
100
AcDbEntity
  8
Layer 1
 62
     7
420
 16777215
370
    25
100
AcDbVertex
100
AcDb2dVertex
 10
27.81985341509223
 20
79.99379190076722
 30
0.0
  0
SEQEND
  5
12C
330
129
100
AcDbEntity
  8
Layer 1
370
    25
  0
POLYLINE
  5
12D
330
B6
100
AcDbEntity
  8
Layer 1
 62
     7
420
 16777215
370
    25
100
AcDb2dPolyline
 66
     1
 10
0.0
 20
0.0
 30
0.0
  0
VERTEX
  5
12E
330
12D
100
AcDbEntity
  8
Layer 1
 62
     7
420
 16777215
370
    25
100
AcDbVertex
100
AcDb2dVertex
 10
55.77372113296916
 20
86.75445174099124
 30
0.0
  0
VERTEX
  5
12F
330
12D
100
AcDbEntity
  8
Layer 1
 62
     7
420
 16777215
370
    25
100
AcDbVertex
100
AcDb2dVertex
 10
57.48593471867612
 20
86.54016666044602
 30
0.0
  0
SEQEND
  5
130
330
12D
100
AcDbEntity
  8
Layer 1
370
    25
  0
POLYLINE
  5
131
330
B6
100
AcDbEntity
  8
Layer 1
 62
     7
420
 16777215
370
    25
100
AcDb2dPolyline
 66
     1
 10
0.0
 20
0.0
 30
0.0
  0
VERTEX
  5
132
330
131
100
AcDbEntity
  8
Layer 1
 62
     7
420
 16777215
370
    25
100
AcDbVertex
100
AcDb2dVertex
 10
124.6625849207227
 20
86.75445174099124
 30
0.0
  0
VERTEX
  5
133
330
131
100
AcDbEntity
  8
Layer 1
 62
     7
420
 16777215
370
    25
100
AcDbVertex
100
AcDb2dVertex
 10
122.9500268252399
 20
86.54016666044602
 30
0.0
  0
SEQEND
  5
134
330
131
100
AcDbEntity
  8
Layer 1
370
    25
  0
POLYLINE
  5
135
330
B6
100
AcDbEntity
  8
Layer 1
 62
     7
420
 16777215
370
    25
100
AcDb2dPolyline
 66
     1
 10
0.0
 20
0.0
 30
0.0
  0
VERTEX
  5
136
330
135
100
AcDbEntity
  8
Layer 1
 62
     7
420
 16777215
370
    25
100
AcDbVertex
100
AcDb2dVertex
 10
122.9500268252399
 20
86.54016666044602
 30
0.0
  0
VERTEX
  5
137
330
135
100
AcDbEntity
  8
Layer 1
 62
     7
420
 16777215
370
    25
100
AcDbVertex
100
AcDb2dVertex
 10
57.48593471867612
 20
86.54016666044602
 30
0.0
  0
SEQEND
  5
138
330
135
100
AcDbEntity
  8
Layer 1
370
    25
  0
POLYLINE
  5
139
330
B6
100
AcDbEntity
  8
Layer 1
 62
   253
420
 10066329
370
    25
100
AcDb2dPolyline
 66
     1
 10
0.0
 20
0.0
 30
0.0
  0
VERTEX
  5
13A
330
139
100
AcDbEntity
  8
Layer 1
 62
   253
420
 10066329
370
    25
100
AcDbVertex
100
AcDb2dVertex
 10
55.77372113296916
 20
86.75445174099124
 30
0.0
  0
VERTEX
  5
13B
330
139
100
AcDbEntity
  8
Layer 1
 62
   253
420
 10066329
370
    25
100
AcDbVertex
100
AcDb2dVertex
 10
124.6625849207227
 20
86.75445174099124
 30
0.0
  0
SEQEND
  5
13C
330
139
100
AcDbEntity
  8
Layer 1
370
    25
  0
POLYLINE
  5
13D
330
B6
100
AcDbEntity
  8
Layer 1
 62
   253
420
 10066329
370
    25
100
AcDb2dPolyline
 66
     1
 10
0.0
 20
0.0
 30
0.0
  0
VERTEX
  5
13E
330
13D
100
AcDbEntity
  8
Layer 1
 62
   253
420
 10066329
370
    25
100
AcDbVertex
100
AcDb2dVertex
 10
55.39114302694752
 20
87.18715601939122
 30
0.0
  0
VERTEX
  5
13F
330
13D
100
AcDbEntity
  8
Layer 1
 62
   253
420
 10066329
370
    25
100
AcDbVertex
100
AcDb2dVertex
 10
125.0449907718564
 20
87.18715601939122
 30
0.0
  0
SEQEND
  5
140
330
13D
100
AcDbEntity
  8
Layer 1
370
    25
  0
POLYLINE
  5
141
330
B6
100
AcDbEntity
  8
Layer 1
 62
   253
420
 10066329
370
    25
100
AcDb2dPolyline
 66
     1
 10
0.0
 20
0.0
 30
0.0
  0
VERTEX
  5
142
330
141
100
AcDbEntity
  8
Layer 1
 62
   253
420
 10066329
370
    25
100
AcDbVertex
100
AcDb2dVertex
 10
55.39114302694752
 20
88.5114515975517
 30
0.0
  0
VERTEX
  5
143
330
141
100
AcDbEntity
  8
Layer 1
 62
   253
420
 10066329
370
    25
100
AcDbVertex
100
AcDb2dVertex
 10
125.0449907718564
 20
88.5114515975517
 30
0.0
  0
SEQEND
  5
144
330
141
100
AcDbEntity
  8
Layer 1
370
    25
  0
POLYLINE
  5
145
330
B6
100
AcDbEntity
  8
Layer 1
 62
   253
420
 10066329
370
    25
100
AcDb2dPolyline
 66
     1
 10
0.0
 20
0.0
 30
0.0
  0
VERTEX
  5
146
330
145
100
AcDbEntity
  8
Layer 1
 62
   253
420
 10066329
370
    25
100
AcDbVertex
100
AcDb2dVertex
 10
55.77372113296916
 20
88.94484489550328
 30
0.0
  0
VERTEX
  5
147
330
145
100
AcDbEntity
  8
Layer 1
 62
   253
420
 10066329
370
    25
100
AcDbVertex
100
AcDb2dVertex
 10
124.6625849207227
 20
88.94484489550328
 30
0.0
  0
SEQEND
  5
148
330
145
100
AcDbEntity
  8
Layer 1
370
    25
  0
POLYLINE
  5
149
330
B6
100
AcDbEntity
  8
Layer 1
 62
     7
420
 16777215
370
    25
100
AcDb2dPolyline
 66
     1
 10
0.0
 20
0.0
 30
0.0
  0
VERTEX
  5
14A
330
149
100
AcDbEntity
  8
Layer 1
 62
     7
420
 16777215
370
    25
100
AcDbVertex
100
AcDb2dVertex
 10
122.9500268252399
 20
89.1587854662727
 30
0.0
  0
VERTEX
  5
14B
330
149
100
AcDbEntity
  8
Layer 1
 62
     7
420
 16777215
370
    25
100
AcDbVertex
100
AcDb2dVertex
 10
57.48593471867612
 20
89.1587854662727
 30
0.0
  0
SEQEND
  5
14C
330
149
100
AcDbEntity
  8
Layer 1
370
    25
  0
POLYLINE
  5
14D
330
B6
100
AcDbEntity
  8
Layer 1
 62
     7
420
 16777215
370
    25
100
AcDb2dPolyline
 66
     1
 10
0.0
 20
0.0
 30
0.0
  0
VERTEX
  5
14E
330
14D
100
AcDbEntity
  8
Layer 1
 62
     7
420
 16777215
370
    25
100
AcDbVertex
100
AcDb2dVertex
 10
122.9500268252399
 20
89.1587854662727
 30
0.0
  0
VERTEX
  5
14F
330
14D
100
AcDbEntity
  8
Layer 1
 62
     7
420
 16777215
370
    25
100
AcDbVertex
100
AcDb2dVertex
 10
124.6625849207227
 20
88.94484489550328
 30
0.0
  0
SEQEND
  5
150
330
14D
100
AcDbEntity
  8
Layer 1
370
    25
  0
POLYLINE
  5
151
330
B6
100
AcDbEntity
  8
Layer 1
 62
     7
420
 16777215
370
    25
100
AcDb2dPolyline
 66
     1
 10
0.0
 20
0.0
 30
0.0
  0
VERTEX
  5
152
330
151
100
AcDbEntity
  8
Layer 1
 62
     7
420
 16777215
370
    25
100
AcDbVertex
100
AcDb2dVertex
 10
55.39114302694752
 20
108.1512648961397
 30
0.0
  0
VERTEX
  5
153
330
151
100
AcDbEntity
  8
Layer 1
 62
     7
420
 16777215
370
    25
100
AcDbVertex
100
AcDb2dVertex
 10
55.39114302694752
 20
106.8266248082034
 30
0.0
  0
SEQEND
  5
154
330
151
100
AcDbEntity
  8
Layer 1
370
    25
  0
POLYLINE
  5
155
330
B6
100
AcDbEntity
  8
Layer 1
 62
     7
420
 16777215
370
    25
100
AcDb2dPolyline
 66
     1
 10
0.0
 20
0.0
 30
0.0
  0
VERTEX
  5
156
330
155
100
AcDbEntity
  8
Layer 1
 62
     7
420
 16777215
370
    25
100
AcDbVertex
100
AcDb2dVertex
 10
55.39114302694752
 20
88.5114515975517
 30
0.0
  0
VERTEX
  5
157
330
155
100
AcDbEntity
  8
Layer 1
 62
     7
420
 16777215
370
    25
100
AcDbVertex
100
AcDb2dVertex
 10
55.39114302694752
 20
87.18715601939122
 30
0.0
  0
SEQEND
  5
158
330
155
100
AcDbEntity
  8
Layer 1
370
    25
  0
POLYLINE
  5
159
330
B6
100
AcDbEntity
  8
Layer 1
 62
     7
420
 16777215
370
    25
100
AcDb2dPolyline
 66
     1
 10
0.0
 20
0.0
 30
0.0
  0
VERTEX
  5
15A
330
159
100
AcDbEntity
  8
Layer 1
 62
     7
420
 16777215
370
    25
100
AcDbVertex
100
AcDb2dVertex
 10
57.48593471867612
 20
80.20876600086403
 30
0.0
  0
VERTEX
  5
15B
330
159
100
AcDbEntity
  8
Layer 1
 62
     7
420
 16777215
370
    25
100
AcDbVertex
100
AcDb2dVertex
 10
57.48593471867612
 20
57.8569717472086
 30
0.0
  0
SEQEND
  5
15C
330
159
100
AcDbEntity
  8
Layer 1
370
    25
  0
POLYLINE
  5
15D
330
B6
100
AcDbEntity
  8
Layer 1
 62
     7
420
 16777215
370
    25
100
AcDb2dPolyline
 66
     1
 10
0.0
 20
0.0
 30
0.0
  0
VERTEX
  5
15E
330
15D
100
AcDbEntity
  8
Layer 1
 62
     7
420
 16777215
370
    25
100
AcDbVertex
100
AcDb2dVertex
 10
57.48593471867612
 20
89.1587854662727
 30
0.0
  0
VERTEX
  5
15F
330
15D
100
AcDbEntity
  8
Layer 1
 62
     7
420
 16777215
370
    25
100
AcDbVertex
100
AcDb2dVertex
 10
55.77372113296916
 20
88.94484489550328
 30
0.0
  0
SEQEND
  5
160
330
15D
100
AcDbEntity
  8
Layer 1
370
    25
  0
POLYLINE
  5
161
330
B6
100
AcDbEntity
  8
Layer 1
 62
     7
420
 16777215
370
    25
100
AcDb2dPolyline
 66
     1
 10
0.0
 20
0.0
 30
0.0
  0
VERTEX
  5
162
330
161
100
AcDbEntity
  8
Layer 1
 62
     7
420
 16777215
370
    25
100
AcDbVertex
100
AcDb2dVertex
 10
55.77372113296916
 20
106.3939205298034
 30
0.0
  0
VERTEX
  5
163
330
161
100
AcDbEntity
  8
Layer 1
 62
     7
420
 16777215
370
    25
100
AcDbVertex
100
AcDb2dVertex
 10
57.48593471867612
 20
106.1792909394824
 30
0.0
  0
SEQEND
  5
164
330
161
100
AcDbEntity
  8
Layer 1
370
    25
  0
POLYLINE
  5
165
330
B6
100
AcDbEntity
  8
Layer 1
 62
     7
420
 16777215
370
    25
100
AcDb2dPolyline
 66
     1
 10
0.0
 20
0.0
 30
0.0
  0
VERTEX
  5
166
330
165
100
AcDbEntity
  8
Layer 1
 62
     7
420
 16777215
370
    25
100
AcDbVertex
100
AcDb2dVertex
 10
124.6625849207227
 20
106.3939205298034
 30
0.0
  0
VERTEX
  5
167
330
165
100
AcDbEntity
  8
Layer 1
 62
     7
420
 16777215
370
    25
100
AcDbVertex
100
AcDb2dVertex
 10
122.9500268252399
 20
106.1792909394824
 30
0.0
  0
SEQEND
  5
168
330
165
100
AcDbEntity
  8
Layer 1
370
    25
  0
POLYLINE
  5
169
330
B6
100
AcDbEntity
  8
Layer 1
 62
     7
420
 16777215
370
    25
100
AcDb2dPolyline
 66
     1
 10
0.0
 20
0.0
 30
0.0
  0
VERTEX
  5
16A
330
169
100
AcDbEntity
  8
Layer 1
 62
     7
420
 16777215
370
    25
100
AcDbVertex
100
AcDb2dVertex
 10
122.9500268252399
 20
106.1792909394824
 30
0.0
  0
VERTEX
  5
16B
330
169
100
AcDbEntity
  8
Layer 1
 62
     7
420
 16777215
370
    25
100
AcDbVertex
100
AcDb2dVertex
 10
57.48593471867612
 20
106.1792909394824
 30
0.0
  0
SEQEND
  5
16C
330
169
100
AcDbEntity
  8
Layer 1
370
    25
  0
POLYLINE
  5
16D
330
B6
100
AcDbEntity
  8
Layer 1
 62
   253
420
 10066329
370
    25
100
AcDb2dPolyline
 66
     1
 10
0.0
 20
0.0
 30
0.0
  0
VERTEX
  5
16E
330
16D
100
AcDbEntity
  8
Layer 1
 62
   253
420
 10066329
370
    25
100
AcDbVertex
100
AcDb2dVertex
 10
55.77372113296916
 20
106.3939205298034
 30
0.0
  0
VERTEX
  5
16F
330
16D
100
AcDbEntity
  8
Layer 1
 62
   253
420
 10066329
370
    25
100
AcDbVertex
100
AcDb2dVertex
 10
124.6625849207227
 20
106.3939205298034
 30
0.0
  0
SEQEND
  5
170
330
16D
100
AcDbEntity
  8
Layer 1
370
    25
  0
POLYLINE
  5
171
330
B6
100
AcDbEntity
  8
Layer 1
 62
   253
420
 10066329
370
    25
100
AcDb2dPolyline
 66
     1
 10
0.0
 20
0.0
 30
0.0
  0
VERTEX
  5
172
330
171
100
AcDbEntity
  8
Layer 1
 62
   253
420
 10066329
370
    25
100
AcDbVertex
100
AcDb2dVertex
 10
55.39114302694752
 20
106.8266248082034
 30
0.0
  0
VERTEX
  5
173
330
171
100
AcDbEntity
  8
Layer 1
 62
   253
420
 10066329
370
    25
100
AcDbVertex
100
AcDb2dVertex
 10
125.0449907718564
 20
106.8266248082034
 30
0.0
  0
SEQEND
  5
174
330
171
100
AcDbEntity
  8
Layer 1
370
    25
  0
POLYLINE
  5
175
330
B6
100
AcDbEntity
  8
Layer 1
 62
   253
420
 10066329
370
    25
100
AcDb2dPolyline
 66
     1
 10
0.0
 20
0.0
 30
0.0
  0
VERTEX
  5
176
330
175
100
AcDbEntity
  8
Layer 1
 62
   253
420
 10066329
370
    25
100
AcDbVertex
100
AcDb2dVertex
 10
55.39114302694752
 20
108.1512648961397
 30
0.0
  0
VERTEX
  5
177
330
175
100
AcDbEntity
  8
Layer 1
 62
   253
420
 10066329
370
    25
100
AcDbVertex
100
AcDb2dVertex
 10
125.0449907718564
 20
108.1512648961397
 30
0.0
  0
SEQEND
  5
178
330
175
100
AcDbEntity
  8
Layer 1
370
    25
  0
POLYLINE
  5
179
330
B6
100
AcDbEntity
  8
Layer 1
 62
   253
420
 10066329
370
    25
100
AcDb2dPolyline
 66
     1
 10
0.0
 20
0.0
 30
0.0
  0
VERTEX
  5
17A
330
179
100
AcDbEntity
  8
Layer 1
 62
   253
420
 10066329
370
    25
100
AcDbVertex
100
AcDb2dVertex
 10
55.77372113296916
 20
108.5839691745397
 30
0.0
  0
VERTEX
  5
17B
330
179
100
AcDbEntity
  8
Layer 1
 62
   253
420
 10066329
370
    25
100
AcDbVertex
100
AcDb2dVertex
 10
124.6625849207227
 20
108.5839691745397
 30
0.0
  0
SEQEND
  5
17C
330
179
100
AcDbEntity
  8
Layer 1
370
    25
  0
POLYLINE
  5
17D
330
B6
100
AcDbEntity
  8
Layer 1
 62
     7
420
 16777215
370
    25
100
AcDb2dPolyline
 66
     1
 10
0.0
 20
0.0
 30
0.0
  0
VERTEX
  5
17E
330
17D
100
AcDbEntity
  8
Layer 1
 62
     7
420
 16777215
370
    25
100
AcDbVertex
100
AcDb2dVertex
 10
122.9500268252399
 20
108.7979097453091
 30
0.0
  0
VERTEX
  5
17F
330
17D
100
AcDbEntity
  8
Layer 1
 62
     7
420
 16777215
370
    25
100
AcDbVertex
100
AcDb2dVertex
 10
57.48593471867612
 20
108.7979097453091
 30
0.0
  0
SEQEND
  5
180
330
17D
100
AcDbEntity
  8
Layer 1
370
    25
  0
POLYLINE
  5
181
330
B6
100
AcDbEntity
  8
Layer 1
 62
     7
420
 16777215
370
    25
100
AcDb2dPolyline
 66
     1
 10
0.0
 20
0.0
 30
0.0
  0
VERTEX
  5
182
330
181
100
AcDbEntity
  8
Layer 1
 62
     7
420
 16777215
370
    25
100
AcDbVertex
100
AcDb2dVertex
 10
122.9500268252399
 20
108.7979097453091
 30
0.0
  0
VERTEX
  5
183
330
181
100
AcDbEntity
  8
Layer 1
 62
     7
420
 16777215
370
    25
100
AcDbVertex
100
AcDb2dVertex
 10
124.6625849207227
 20
108.5839691745397
 30
0.0
  0
SEQEND
  5
184
330
181
100
AcDbEntity
  8
Layer 1
370
    25
  0
POLYLINE
  5
185
330
B6
100
AcDbEntity
  8
Layer 1
 62
     7
420
 16777215
370
    25
100
AcDb2dPolyline
 66
     1
 10
0.0
 20
0.0
 30
0.0
  0
VERTEX
  5
186
330
185
100
AcDbEntity
  8
Layer 1
 62
     7
420
 16777215
370
    25
100
AcDbVertex
100
AcDb2dVertex
 10
57.48593471867612
 20
108.7979097453091
 30
0.0
  0
VERTEX
  5
187
330
185
100
AcDbEntity
  8
Layer 1
 62
     7
420
 16777215
370
    25
100
AcDbVertex
100
AcDb2dVertex
 10
55.77372113296916
 20
108.5839691745397
 30
0.0
  0
SEQEND
  5
188
330
185
100
AcDbEntity
  8
Layer 1
370
    25
  0
POLYLINE
  5
189
330
B6
100
AcDbEntity
  8
Layer 1
 62
   253
420
 10066329
370
    25
100
AcDb2dPolyline
 66
     1
 10
0.0
 20
0.0
 30
0.0
  0
VERTEX
  5
18A
330
189
100
AcDbEntity
  8
Layer 1
 62
   253
420
 10066329
370
    25
100
AcDbVertex
100
AcDb2dVertex
 10
122.9500268252399
 20
114.6559539729472
 30
0.0
  0
VERTEX
  5
18B
330
189
100
AcDbEntity
  8
Layer 1
 62
   253
420
 10066329
370
    25
100
AcDbVertex
100
AcDb2dVertex
 10
57.48593471867612
 20
114.6559539729472
 30
0.0
  0
SEQEND
  5
18C
330
189
100
AcDbEntity
  8
Layer 1
370
    25
  0
POLYLINE
  5
18D
330
B6
100
AcDbEntity
  8
Layer 1
 62
   253
420
 10066329
370
    25
100
AcDb2dPolyline
 66
     1
 10
0.0
 20
0.0
 30
0.0
  0
VERTEX
  5
18E
330
18D
100
AcDbEntity
  8
Layer 1
 62
   253
420
 10066329
370
    25
100
AcDbVertex
100
AcDb2dVertex
 10
122.7319521371609
 20
115.0338811969956
 30
0.0
  0
VERTEX
  5
18F
330
18D
100
AcDbEntity
  8
Layer 1
 62
   253
420
 10066329
370
    25
100
AcDbVertex
100
AcDb2dVertex
 10
57.704181661643
 20
115.0338811969956
 30
0.0
  0
SEQEND
  5
190
330
18D
100
AcDbEntity
  8
Layer 1
370
    25
  0
POLYLINE
  5
191
330
B6
100
AcDbEntity
  8
Layer 1
 62
     7
420
 16777215
370
    25
100
AcDb2dPolyline
 66
     1
 10
0.0
 20
0.0
 30
0.0
  0
VERTEX
  5
192
330
191
100
AcDbEntity
  8
Layer 1
 62
     7
420
 16777215
370
    25
100
AcDbVertex
100
AcDb2dVertex
 10
117.8643735149369
 20
116.4198440250235
 30
0.0
  0
VERTEX
  5
193
330
191
100
AcDbEntity
  8
Layer 1
 62
     7
420
 16777215
370
    25
100
AcDbVertex
100
AcDb2dVertex
 10
60.1043812696149
 20
116.4198440250235
 30
0.0
  0
SEQEND
  5
194
330
191
100
AcDbEntity
  8
Layer 1
370
    25
  0
POLYLINE
  5
195
330
B6
100
AcDbEntity
  8
Layer 1
 62
     7
420
 16777215
370
    25
100
AcDb2dPolyline
 66
     1
 10
0.0
 20
0.0
 30
0.0
  0
VERTEX
  5
196
330
195
100
AcDbEntity
  8
Layer 1
 62
     7
420
 16777215
370
    25
100
AcDbVertex
100
AcDb2dVertex
 10
119.8573625679177
 20
116.2792840364987
 30
0.0
  0
VERTEX
  5
197
330
195
100
AcDbEntity
  8
Layer 1
 62
     7
420
 16777215
370
    25
100
AcDbVertex
100
AcDb2dVertex
 10
119.4077773105037
 20
116.3292379539891
 30
0.0
  0
VERTEX
  5
198
330
195
100
AcDbEntity
  8
Layer 1
 62
     7
420
 16777215
370
    25
100
AcDbVertex
100
AcDb2dVertex
 10
118.8930797054642
 20
116.37505775417
 30
0.0
  0
VERTEX
  5
199
330
195
100
AcDbEntity
  8
Layer 1
 62
     7
420
 16777215
370
    25
100
AcDbVertex
100
AcDb2dVertex
 10
118.3708028853573
 20
116.4074416730949
 30
0.0
  0
VERTEX
  5
19A
330
195
100
AcDbEntity
  8
Layer 1
 62
     7
420
 16777215
370
    25
100
AcDbVertex
100
AcDb2dVertex
 10
117.8643735149369
 20
116.4198440250235
 30
0.0
  0
SEQEND
  5
19B
330
195
100
AcDbEntity
  8
Layer 1
370
    25
  0
POLYLINE
  5
19C
330
B6
100
AcDbEntity
  8
Layer 1
 62
     7
420
 16777215
370
    25
100
AcDb2dPolyline
 66
     1
 10
0.0
 20
0.0
 30
0.0
  0
VERTEX
  5
19D
330
19C
100
AcDbEntity
  8
Layer 1
 62
     7
420
 16777215
370
    25
100
AcDbVertex
100
AcDb2dVertex
 10
119.8573625679177
 20
116.2792840364987
 30
0.0
  0
VERTEX
  5
19E
330
19C
100
AcDbEntity
  8
Layer 1
 62
     7
420
 16777215
370
    25
100
AcDbVertex
100
AcDb2dVertex
 10
120.7689354346744
 20
116.1669738495892
 30
0.0
  0
SEQEND
  5
19F
330
19C
100
AcDbEntity
  8
Layer 1
370
    25
  0
POLYLINE
  5
1A0
330
B6
100
AcDbEntity
  8
Layer 1
 62
   253
420
 10066329
370
    25
100
AcDb2dPolyline
 66
     1
 10
0.0
 20
0.0
 30
0.0
  0
VERTEX
  5
1A1
330
1A0
100
AcDbEntity
  8
Layer 1
 62
   253
420
 10066329
370
    25
100
AcDbVertex
100
AcDb2dVertex
 10
90.21780851707013
 20
128.2031118865799
 30
0.0
  0
VERTEX
  5
1A2
330
1A0
100
AcDbEntity
  8
Layer 1
 62
   253
420
 10066329
370
    25
100
AcDbVertex
100
AcDb2dVertex
 10
119.8573625679177
 20
116.2792840364987
 30
0.0
  0
SEQEND
  5
1A3
330
1A0
100
AcDbEntity
  8
Layer 1
370
    25
  0
POLYLINE
  5
1A4
330
B6
100
AcDbEntity
  8
Layer 1
 62
   253
420
 10066329
370
    25
100
AcDb2dPolyline
 66
     1
 10
0.0
 20
0.0
 30
0.0
  0
VERTEX
  5
1A5
330
1A4
100
AcDbEntity
  8
Layer 1
 62
   253
420
 10066329
370
    25
100
AcDbVertex
100
AcDb2dVertex
 10
90.21780851707013
 20
128.2031118865799
 30
0.0
  0
VERTEX
  5
1A6
330
1A4
100
AcDbEntity
  8
Layer 1
 62
   253
420
 10066329
370
    25
100
AcDbVertex
100
AcDb2dVertex
 10
117.8643735149369
 20
116.4198440250235
 30
0.0
  0
SEQEND
  5
1A7
330
1A4
100
AcDbEntity
  8
Layer 1
370
    25
  0
POLYLINE
  5
1A8
330
B6
100
AcDbEntity
  8
Layer 1
 62
     7
420
 16777215
370
    25
100
AcDb2dPolyline
 66
     1
 10
0.0
 20
0.0
 30
0.0
  0
VERTEX
  5
1A9
330
1A8
100
AcDbEntity
  8
Layer 1
 62
     7
420
 16777215
370
    25
100
AcDbVertex
100
AcDb2dVertex
 10
122.3071715836043
 20
205.5589924340759
 30
0.0
  0
VERTEX
  5
1AA
330
1A8
100
AcDbEntity
  8
Layer 1
 62
     7
420
 16777215
370
    25
100
AcDbVertex
100
AcDb2dVertex
 10
119.8725209980527
 20
204.1730296060479
 30
0.0
  0
SEQEND
  5
1AB
330
1A8
100
AcDbEntity
  8
Layer 1
370
    25
  0
POLYLINE
  5
1AC
330
B6
100
AcDbEntity
  8
Layer 1
 62
     7
420
 16777215
370
    25
100
AcDb2dPolyline
 66
     1
 10
0.0
 20
0.0
 30
0.0
  0
VERTEX
  5
1AD
330
1AC
100
AcDbEntity
  8
Layer 1
 62
     7
420
 16777215
370
    25
100
AcDbVertex
100
AcDb2dVertex
 10
90.21780851707013
 20
237.0098066311718
 30
0.0
  0
VERTEX
  5
1AE
330
1AC
100
AcDbEntity
  8
Layer 1
 62
     7
420
 16777215
370
    25
100
AcDbVertex
100
AcDb2dVertex
 10
90.21780851707013
 20
260.350860706026
 30
0.0
  0
SEQEND
  5
1AF
330
1AC
100
AcDbEntity
  8
Layer 1
370
    25
  0
POLYLINE
  5
1B0
330
B6
100
AcDbEntity
  8
Layer 1
 62
     7
420
 16777215
370
    25
100
AcDb2dPolyline
 66
     1
 10
0.0
 20
0.0
 30
0.0
  0
VERTEX
  5
1B1
330
1B0
100
AcDbEntity
  8
Layer 1
 62
     7
420
 16777215
370
    25
100
AcDbVertex
100
AcDb2dVertex
 10
122.5745111696221
 20
205.7532959476249
 30
0.0
  0
VERTEX
  5
1B2
330
1B0
100
AcDbEntity
  8
Layer 1
 62
     7
420
 16777215
370
    25
100
AcDbVertex
100
AcDb2dVertex
 10
122.5562521515049
 20
205.7274577144402
 30
0.0
  0
VERTEX
  5
1B3
330
1B0
100
AcDbEntity
  8
Layer 1
 62
     7
420
 16777215
370
    25
100
AcDbVertex
100
AcDb2dVertex
 10
122.5355815649571
 20
205.700758206816
 30
0.0
  0
VERTEX
  5
1B4
330
1B0
100
AcDbEntity
  8
Layer 1
 62
     7
420
 16777215
370
    25
100
AcDbVertex
100
AcDb2dVertex
 10
122.5135329393062
 20
205.6738864443039
 30
0.0
  0
SEQEND
  5
1B5
330
1B0
100
AcDbEntity
  8
Layer 1
370
    25
  0
POLYLINE
  5
1B6
330
B6
100
AcDbEntity
  8
Layer 1
 62
     7
420
 16777215
370
    25
100
AcDb2dPolyline
 66
     1
 10
0.0
 20
0.0
 30
0.0
  0
VERTEX
  5
1B7
330
1B6
100
AcDbEntity
  8
Layer 1
 62
     7
420
 16777215
370
    25
100
AcDbVertex
100
AcDb2dVertex
 10
122.1759133590259
 20
205.2296410884147
 30
0.0
  0
VERTEX
  5
1B8
330
1B6
100
AcDbEntity
  8
Layer 1
 62
     7
420
 16777215
370
    25
100
AcDbVertex
100
AcDb2dVertex
 10
122.5135329393062
 20
205.5674329235829
 30
0.0
  0
SEQEND
  5
1B9
330
1B6
100
AcDbEntity
  8
Layer 1
370
    25
  0
POLYLINE
  5
1BA
330
B6
100
AcDbEntity
  8
Layer 1
 62
     7
420
 16777215
370
    25
100
AcDb2dPolyline
 66
     1
 10
0.0
 20
0.0
 30
0.0
  0
VERTEX
  5
1BB
330
1BA
100
AcDbEntity
  8
Layer 1
 62
     7
420
 16777215
370
    25
100
AcDbVertex
100
AcDb2dVertex
 10
121.3401326429444
 20
201.2633000396734
 30
0.0
  0
VERTEX
  5
1BC
330
1BA
100
AcDbEntity
  8
Layer 1
 62
     7
420
 16777215
370
    25
100
AcDbVertex
100
AcDb2dVertex
 10
122.5135329393062
 20
202.437044845811
 30
0.0
  0
SEQEND
  5
1BD
330
1BA
100
AcDbEntity
  8
Layer 1
370
    25
  0
POLYLINE
  5
1BE
330
B6
100
AcDbEntity
  8
Layer 1
 62
     7
420
 16777215
370
    25
100
AcDb2dPolyline
 66
     1
 10
0.0
 20
0.0
 30
0.0
  0
VERTEX
  5
1BF
330
1BE
100
AcDbEntity
  8
Layer 1
 62
     7
420
 16777215
370
    25
100
AcDbVertex
100
AcDb2dVertex
 10
122.5135329393062
 20
205.8251262358784
 30
0.0
  0
VERTEX
  5
1C0
330
1BE
100
AcDbEntity
  8
Layer 1
 62
     7
420
 16777215
370
    25
100
AcDbVertex
100
AcDb2dVertex
 10
122.4907952941036
 20
205.7607029078045
 30
0.0
  0
VERTEX
  5
1C1
330
1BE
100
AcDbEntity
  8
Layer 1
 62
     7
420
 16777215
370
    25
100
AcDbVertex
100
AcDb2dVertex
 10
122.458066865403
 20
205.700758206816
 30
0.0
  0
VERTEX
  5
1C2
330
1BE
100
AcDbEntity
  8
Layer 1
 62
     7
420
 16777215
370
    25
100
AcDbVertex
100
AcDb2dVertex
 10
122.4156921629801
 20
205.6458088975765
 30
0.0
  0
VERTEX
  5
1C3
330
1BE
100
AcDbEntity
  8
Layer 1
 62
     7
420
 16777215
370
    25
100
AcDbVertex
100
AcDb2dVertex
 10
122.365049225938
 20
205.5982665485166
 30
0.0
  0
VERTEX
  5
1C4
330
1BE
100
AcDbEntity
  8
Layer 1
 62
     7
420
 16777215
370
    25
100
AcDbVertex
100
AcDb2dVertex
 10
122.3071715836043
 20
205.5589924340759
 30
0.0
  0
SEQEND
  5
1C5
330
1BE
100
AcDbEntity
  8
Layer 1
370
    25
  0
POLYLINE
  5
1C6
330
B6
100
AcDbEntity
  8
Layer 1
 62
   253
420
 10066329
370
    25
100
AcDb2dPolyline
 66
     1
 10
0.0
 20
0.0
 30
0.0
  0
VERTEX
  5
1C7
330
1C6
100
AcDbEntity
  8
Layer 1
 62
   253
420
 10066329
370
    25
100
AcDbVertex
100
AcDb2dVertex
 10
119.8725209980527
 20
201.8710152841779
 30
0.0
  0
VERTEX
  5
1C8
330
1C6
100
AcDbEntity
  8
Layer 1
 62
   253
420
 10066329
370
    25
100
AcDbVertex
100
AcDb2dVertex
 10
90.21780851707013
 20
128.2031118865799
 30
0.0
  0
SEQEND
  5
1C9
330
1C6
100
AcDbEntity
  8
Layer 1
370
    25
  0
POLYLINE
  5
1CA
330
B6
100
AcDbEntity
  8
Layer 1
 62
     7
420
 16777215
370
    25
100
AcDb2dPolyline
 66
     1
 10
0.0
 20
0.0
 30
0.0
  0
VERTEX
  5
1CB
330
1CA
100
AcDbEntity
  8
Layer 1
 62
     7
420
 16777215
370
    25
100
AcDbVertex
100
AcDb2dVertex
 10
122.9500268252399
 20
206.608369211151
 30
0.0
  0
VERTEX
  5
1CC
330
1CA
100
AcDbEntity
  8
Layer 1
 62
     7
420
 16777215
370
    25
100
AcDbVertex
100
AcDb2dVertex
 10
122.6740744948272
 20
205.9367474032364
 30
0.0
  0
SEQEND
  5
1CD
330
1CA
100
AcDbEntity
  8
Layer 1
370
    25
  0
POLYLINE
  5
1CE
330
B6
100
AcDbEntity
  8
Layer 1
 62
   253
420
 10066329
370
    25
100
AcDb2dPolyline
 66
     1
 10
0.0
 20
0.0
 30
0.0
  0
VERTEX
  5
1CF
330
1CE
100
AcDbEntity
  8
Layer 1
 62
   253
420
 10066329
370
    25
100
AcDbVertex
100
AcDb2dVertex
 10
121.3401326429444
 20
201.2633000396734
 30
0.0
  0
VERTEX
  5
1D0
330
1CE
100
AcDbEntity
  8
Layer 1
 62
   253
420
 10066329
370
    25
100
AcDbVertex
100
AcDb2dVertex
 10
90.21780851707013
 20
128.2031118865799
 30
0.0
  0
SEQEND
  5
1D1
330
1CE
100
AcDbEntity
  8
Layer 1
370
    25
  0
POLYLINE
  5
1D2
330
B6
100
AcDbEntity
  8
Layer 1
 62
     7
420
 16777215
370
    25
100
AcDb2dPolyline
 66
     1
 10
0.0
 20
0.0
 30
0.0
  0
VERTEX
  5
1D3
330
1D2
100
AcDbEntity
  8
Layer 1
 62
     7
420
 16777215
370
    25
100
AcDbVertex
100
AcDb2dVertex
 10
122.6740744948272
 20
205.9367474032364
 30
0.0
  0
VERTEX
  5
1D4
330
1D2
100
AcDbEntity
  8
Layer 1
 62
     7
420
 16777215
370
    25
100
AcDbVertex
100
AcDb2dVertex
 10
122.6627056722259
 20
205.9100478956122
 30
0.0
  0
VERTEX
  5
1D5
330
1D2
100
AcDbEntity
  8
Layer 1
 62
     7
420
 16777215
370
    25
100
AcDbVertex
100
AcDb2dVertex
 10
122.6503033202973
 20
205.8835206428759
 30
0.0
  0
VERTEX
  5
1D6
330
1D2
100
AcDbEntity
  8
Layer 1
 62
     7
420
 16777215
370
    25
100
AcDbVertex
100
AcDb2dVertex
 10
122.637211948817
 20
205.8571656450274
 30
0.0
  0
VERTEX
  5
1D7
330
1D2
100
AcDbEntity
  8
Layer 1
 62
     7
420
 16777215
370
    25
100
AcDbVertex
100
AcDb2dVertex
 10
122.6230870480094
 20
205.8313274118427
 30
0.0
  0
VERTEX
  5
1D8
330
1D2
100
AcDbEntity
  8
Layer 1
 62
     7
420
 16777215
370
    25
100
AcDbVertex
100
AcDb2dVertex
 10
122.6079286178743
 20
205.8051446688822
 30
0.0
  0
VERTEX
  5
1D9
330
1D2
100
AcDbEntity
  8
Layer 1
 62
     7
420
 16777215
370
    25
100
AcDbVertex
100
AcDb2dVertex
 10
122.5920811681877
 20
205.7793064356975
 30
0.0
  0
VERTEX
  5
1DA
330
1D2
100
AcDbEntity
  8
Layer 1
 62
     7
420
 16777215
370
    25
100
AcDbVertex
100
AcDb2dVertex
 10
122.5745111696221
 20
205.7532959476249
 30
0.0
  0
SEQEND
  5
1DB
330
1D2
100
AcDbEntity
  8
Layer 1
370
    25
  0
POLYLINE
  5
1DC
330
B6
100
AcDbEntity
  8
Layer 1
 62
     7
420
 16777215
370
    25
100
AcDb2dPolyline
 66
     1
 10
0.0
 20
0.0
 30
0.0
  0
VERTEX
  5
1DD
330
1DC
100
AcDbEntity
  8
Layer 1
 62
     7
420
 16777215
370
    25
100
AcDbVertex
100
AcDb2dVertex
 10
119.8725209980527
 20
201.8710152841779
 30
0.0
  0
VERTEX
  5
1DE
330
1DC
100
AcDbEntity
  8
Layer 1
 62
     7
420
 16777215
370
    25
100
AcDbVertex
100
AcDb2dVertex
 10
119.8852678597572
 20
201.7121962775358
 30
0.0
  0
VERTEX
  5
1DF
330
1DC
100
AcDbEntity
  8
Layer 1
 62
     7
420
 16777215
370
    25
100
AcDbVertex
100
AcDb2dVertex
 10
119.9221304057674
 20
201.5609564859613
 30
0.0
  0
VERTEX
  5
1E0
330
1DC
100
AcDbEntity
  8
Layer 1
 62
     7
420
 16777215
370
    25
100
AcDbVertex
100
AcDb2dVertex
 10
119.9813860872043
 20
201.422980320755
 30
0.0
  0
VERTEX
  5
1E1
330
1DC
100
AcDbEntity
  8
Layer 1
 62
     7
420
 16777215
370
    25
100
AcDbVertex
100
AcDb2dVertex
 10
120.0595898063101
 20
201.301196115011
 30
0.0
  0
VERTEX
  5
1E2
330
1DC
100
AcDbEntity
  8
Layer 1
 62
     7
420
 16777215
370
    25
100
AcDbVertex
100
AcDb2dVertex
 10
120.1563970533088
 20
201.1950871040658
 30
0.0
  0
VERTEX
  5
1E3
330
1DC
100
AcDbEntity
  8
Layer 1
 62
     7
420
 16777215
370
    25
100
AcDbVertex
100
AcDb2dVertex
 10
120.2680182206667
 20
201.1093041698925
 30
0.0
  0
VERTEX
  5
1E4
330
1DC
100
AcDbEntity
  8
Layer 1
 62
     7
420
 16777215
370
    25
100
AcDbVertex
100
AcDb2dVertex
 10
120.3903191910744
 20
201.0457421162581
 30
0.0
  0
VERTEX
  5
1E5
330
1DC
100
AcDbEntity
  8
Layer 1
 62
     7
420
 16777215
370
    25
100
AcDbVertex
100
AcDb2dVertex
 10
120.5215774156527
 20
201.0042286882747
 30
0.0
  0
VERTEX
  5
1E6
330
1DC
100
AcDbEntity
  8
Layer 1
 62
     7
420
 16777215
370
    25
100
AcDbVertex
100
AcDb2dVertex
 10
120.661448384626
 20
200.9859696701575
 30
0.0
  0
VERTEX
  5
1E7
330
1DC
100
AcDbEntity
  8
Layer 1
 62
     7
420
 16777215
370
    25
100
AcDbVertex
100
AcDb2dVertex
 10
120.8044199415814
 20
200.9925153558976
 30
0.0
  0
VERTEX
  5
1E8
330
1DC
100
AcDbEntity
  8
Layer 1
 62
     7
420
 16777215
370
    25
100
AcDbVertex
100
AcDb2dVertex
 10
120.9463579692094
 20
201.0231767259435
 30
0.0
  0
VERTEX
  5
1E9
330
1DC
100
AcDbEntity
  8
Layer 1
 62
     7
420
 16777215
370
    25
100
AcDbVertex
100
AcDb2dVertex
 10
121.0855399186311
 20
201.0789873096225
 30
0.0
  0
VERTEX
  5
1EA
330
1DC
100
AcDbEntity
  8
Layer 1
 62
     7
420
 16777215
370
    25
100
AcDbVertex
100
AcDb2dVertex
 10
121.2181761823126
 20
201.1597748520467
 30
0.0
  0
VERTEX
  5
1EB
330
1DC
100
AcDbEntity
  8
Layer 1
 62
     7
420
 16777215
370
    25
100
AcDbVertex
100
AcDb2dVertex
 10
121.3401326429444
 20
201.2633000396734
 30
0.0
  0
SEQEND
  5
1EC
330
1DC
100
AcDbEntity
  8
Layer 1
370
    25
  0
POLYLINE
  5
1ED
330
B6
100
AcDbEntity
  8
Layer 1
 62
     7
420
 16777215
370
    25
100
AcDb2dPolyline
 66
     1
 10
0.0
 20
0.0
 30
0.0
  0
VERTEX
  5
1EE
330
1ED
100
AcDbEntity
  8
Layer 1
 62
     7
420
 16777215
370
    25
100
AcDbVertex
100
AcDb2dVertex
 10
119.8725209980527
 20
204.1730296060479
 30
0.0
  0
VERTEX
  5
1EF
330
1ED
100
AcDbEntity
  8
Layer 1
 62
     7
420
 16777215
370
    25
100
AcDbVertex
100
AcDb2dVertex
 10
119.8725209980527
 20
201.8710152841779
 30
0.0
  0
SEQEND
  5
1F0
330
1ED
100
AcDbEntity
  8
Layer 1
370
    25
  0
POLYLINE
  5
1F1
330
B6
100
AcDbEntity
  8
Layer 1
 62
     7
420
 16777215
370
    25
100
AcDb2dPolyline
 66
     1
 10
0.0
 20
0.0
 30
0.0
  0
VERTEX
  5
1F2
330
1F1
100
AcDbEntity
  8
Layer 1
 62
     7
420
 16777215
370
    25
100
AcDbVertex
100
AcDb2dVertex
 10
122.5135329393062
 20
205.8251262358784
 30
0.0
  0
VERTEX
  5
1F3
330
1F1
100
AcDbEntity
  8
Layer 1
 62
     7
420
 16777215
370
    25
100
AcDbVertex
100
AcDb2dVertex
 10
122.5135329393062
 20
205.5674329235829
 30
0.0
  0
SEQEND
  5
1F4
330
1F1
100
AcDbEntity
  8
Layer 1
370
    25
  0
POLYLINE
  5
1F5
330
B6
100
AcDbEntity
  8
Layer 1
 62
     7
420
 16777215
370
    25
100
AcDb2dPolyline
 66
     1
 10
0.0
 20
0.0
 30
0.0
  0
VERTEX
  5
1F6
330
1F5
100
AcDbEntity
  8
Layer 1
 62
     7
420
 16777215
370
    25
100
AcDbVertex
100
AcDb2dVertex
 10
122.5135329393062
 20
203.1710229231447
 30
0.0
  0
VERTEX
  5
1F7
330
1F5
100
AcDbEntity
  8
Layer 1
 62
     7
420
 16777215
370
    25
100
AcDbVertex
100
AcDb2dVertex
 10
122.5135329393062
 20
202.437044845811
 30
0.0
  0
SEQEND
  5
1F8
330
1F5
100
AcDbEntity
  8
Layer 1
370
    25
  0
POLYLINE
  5
1F9
330
B6
100
AcDbEntity
  8
Layer 1
 62
     7
420
 16777215
370
    25
100
AcDb2dPolyline
 66
     1
 10
0.0
 20
0.0
 30
0.0
  0
VERTEX
  5
1FA
330
1F9
100
AcDbEntity
  8
Layer 1
 62
     7
420
 16777215
370
    25
100
AcDbVertex
100
AcDb2dVertex
 10
122.9500268252399
 20
78.79317533211757
 30
0.0
  0
VERTEX
  5
1FB
330
1F9
100
AcDbEntity
  8
Layer 1
 62
     7
420
 16777215
370
    25
100
AcDbVertex
100
AcDb2dVertex
 10
122.9500268252399
 20
66.12727342497142
 30
0.0
  0
SEQEND
  5
1FC
330
1F9
100
AcDbEntity
  8
Layer 1
370
    25
  0
POLYLINE
  5
1FD
330
B6
100
AcDbEntity
  8
Layer 1
 62
     7
420
 16777215
370
    25
100
AcDb2dPolyline
 66
     1
 10
0.0
 20
0.0
 30
0.0
  0
VERTEX
  5
1FE
330
1FD
100
AcDbEntity
  8
Layer 1
 62
     7
420
 16777215
370
    25
100
AcDbVertex
100
AcDb2dVertex
 10
164.9695396693228
 20
202.9550152937205
 30
0.0
  0
VERTEX
  5
1FF
330
1FD
100
AcDbEntity
  8
Layer 1
 62
     7
420
 16777215
370
    25
100
AcDbVertex
100
AcDb2dVertex
 10
183.6605730453682
 20
221.645876414878
 30
0.0
  0
SEQEND
  5
200
330
1FD
100
AcDbEntity
  8
Layer 1
370
    25
  0
POLYLINE
  5
201
330
B6
100
AcDbEntity
  8
Layer 1
 62
     7
420
 16777215
370
    25
100
AcDb2dPolyline
 66
     1
 10
0.0
 20
0.0
 30
0.0
  0
VERTEX
  5
202
330
201
100
AcDbEntity
  8
Layer 1
 62
     7
420
 16777215
370
    25
100
AcDbVertex
100
AcDb2dVertex
 10
125.0449907718564
 20
108.1512648961397
 30
0.0
  0
VERTEX
  5
203
330
201
100
AcDbEntity
  8
Layer 1
 62
     7
420
 16777215
370
    25
100
AcDbVertex
100
AcDb2dVertex
 10
125.0449907718564
 20
106.8266248082034
 30
0.0
  0
SEQEND
  5
204
330
201
100
AcDbEntity
  8
Layer 1
370
    25
  0
POLYLINE
  5
205
330
B6
100
AcDbEntity
  8
Layer 1
 62
     7
420
 16777215
370
    25
100
AcDb2dPolyline
 66
     1
 10
0.0
 20
0.0
 30
0.0
  0
VERTEX
  5
206
330
205
100
AcDbEntity
  8
Layer 1
 62
     7
420
 16777215
370
    25
100
AcDbVertex
100
AcDb2dVertex
 10
125.0449907718564
 20
88.5114515975517
 30
0.0
  0
VERTEX
  5
207
330
205
100
AcDbEntity
  8
Layer 1
 62
     7
420
 16777215
370
    25
100
AcDbVertex
100
AcDb2dVertex
 10
125.0449907718564
 20
87.18715601939122
 30
0.0
  0
SEQEND
  5
208
330
205
100
AcDbEntity
  8
Layer 1
370
    25
  0
POLYLINE
  5
209
330
B6
100
AcDbEntity
  8
Layer 1
 62
     7
420
 16777215
370
    25
100
AcDb2dPolyline
 66
     1
 10
0.0
 20
0.0
 30
0.0
  0
VERTEX
  5
20A
330
209
100
AcDbEntity
  8
Layer 1
 62
     7
420
 16777215
370
    25
100
AcDbVertex
100
AcDb2dVertex
 10
122.0649812112196
 20
204.8058940641854
 30
0.0
  0
VERTEX
  5
20B
330
209
100
AcDbEntity
  8
Layer 1
 62
     7
420
 16777215
370
    25
100
AcDbVertex
100
AcDb2dVertex
 10
122.0508563104119
 20
204.8816862148606
 30
0.0
  0
VERTEX
  5
20C
330
209
100
AcDbEntity
  8
Layer 1
 62
     7
420
 16777215
370
    25
100
AcDbVertex
100
AcDb2dVertex
 10
122.0505118006361
 20
204.9588564046389
 30
0.0
  0
VERTEX
  5
20D
330
209
100
AcDbEntity
  8
Layer 1
 62
     7
420
 16777215
370
    25
100
AcDbVertex
100
AcDb2dVertex
 10
122.0632586623406
 20
205.0341317906504
 30
0.0
  0
VERTEX
  5
20E
330
209
100
AcDbEntity
  8
Layer 1
 62
     7
420
 16777215
370
    25
100
AcDbVertex
100
AcDb2dVertex
 10
122.0890968955253
 20
205.1054453142402
 30
0.0
  0
VERTEX
  5
20F
330
209
100
AcDbEntity
  8
Layer 1
 62
     7
420
 16777215
370
    25
100
AcDbVertex
100
AcDb2dVertex
 10
122.1269929708629
 20
205.1715911911931
 30
0.0
  0
VERTEX
  5
210
330
209
100
AcDbEntity
  8
Layer 1
 62
     7
420
 16777215
370
    25
100
AcDbVertex
100
AcDb2dVertex
 10
122.1759133590259
 20
205.2296410884147
 30
0.0
  0
SEQEND
  5
211
330
209
100
AcDbEntity
  8
Layer 1
370
    25
  0
POLYLINE
  5
212
330
B6
100
AcDbEntity
  8
Layer 1
 62
     7
420
 16777215
370
    25
100
AcDb2dPolyline
 66
     1
 10
0.0
 20
0.0
 30
0.0
  0
VERTEX
  5
213
330
212
100
AcDbEntity
  8
Layer 1
 62
     7
420
 16777215
370
    25
100
AcDbVertex
100
AcDb2dVertex
 10
122.0649812112196
 20
204.8058940641854
 30
0.0
  0
VERTEX
  5
214
330
212
100
AcDbEntity
  8
Layer 1
 62
     7
420
 16777215
370
    25
100
AcDbVertex
100
AcDb2dVertex
 10
122.5135329393062
 20
203.1710229231447
 30
0.0
  0
SEQEND
  5
215
330
212
100
AcDbEntity
  8
Layer 1
370
    25
  0
POLYLINE
  5
216
330
B6
100
AcDbEntity
  8
Layer 1
 62
     7
420
 16777215
370
    25
100
AcDb2dPolyline
 66
     1
 10
0.0
 20
0.0
 30
0.0
  0
VERTEX
  5
217
330
216
100
AcDbEntity
  8
Layer 1
 62
     7
420
 16777215
370
    25
100
AcDbVertex
100
AcDb2dVertex
 10
164.9343996721916
 20
160.3326103419943
 30
0.0
  0
VERTEX
  5
218
330
216
100
AcDbEntity
  8
Layer 1
 62
     7
420
 16777215
370
    25
100
AcDbVertex
100
AcDb2dVertex
 10
122.5135329393062
 20
202.7534770748798
 30
0.0
  0
SEQEND
  5
219
330
216
100
AcDbEntity
  8
Layer 1
370
    25
  0
POLYLINE
  5
21A
330
B6
100
AcDbEntity
  8
Layer 1
 62
   253
420
 10066329
370
    25
100
AcDb2dPolyline
 66
     1
 10
0.0
 20
0.0
 30
0.0
  0
VERTEX
  5
21B
330
21A
100
AcDbEntity
  8
Layer 1
 62
   253
420
 10066329
370
    25
100
AcDbVertex
100
AcDb2dVertex
 10
167.1247928267037
 20
159.7457379389255
 30
0.0
  0
VERTEX
  5
21C
330
21A
100
AcDbEntity
  8
Layer 1
 62
   253
420
 10066329
370
    25
100
AcDbVertex
100
AcDb2dVertex
 10
122.0649812112196
 20
204.8058940641854
 30
0.0
  0
SEQEND
  5
21D
330
21A
100
AcDbEntity
  8
Layer 1
370
    25
  0
POLYLINE
  5
21E
330
B6
100
AcDbEntity
  8
Layer 1
 62
   253
420
 10066329
370
    25
100
AcDb2dPolyline
 66
     1
 10
0.0
 20
0.0
 30
0.0
  0
VERTEX
  5
21F
330
21E
100
AcDbEntity
  8
Layer 1
 62
   253
420
 10066329
370
    25
100
AcDbVertex
100
AcDb2dVertex
 10
122.1759133590259
 20
205.2296410884147
 30
0.0
  0
VERTEX
  5
220
330
21E
100
AcDbEntity
  8
Layer 1
 62
   253
420
 10066329
370
    25
100
AcDbVertex
100
AcDb2dVertex
 10
167.5464727922782
 20
159.8589094002746
 30
0.0
  0
SEQEND
  5
221
330
21E
100
AcDbEntity
  8
Layer 1
370
    25
  0
POLYLINE
  5
222
330
B6
100
AcDbEntity
  8
Layer 1
 62
     7
420
 16777215
370
    25
100
AcDb2dPolyline
 66
     1
 10
0.0
 20
0.0
 30
0.0
  0
VERTEX
  5
223
330
222
100
AcDbEntity
  8
Layer 1
 62
     7
420
 16777215
370
    25
100
AcDbVertex
100
AcDb2dVertex
 10
119.8725209980527
 20
204.1730296060479
 30
0.0
  0
VERTEX
  5
224
330
222
100
AcDbEntity
  8
Layer 1
 62
     7
420
 16777215
370
    25
100
AcDbVertex
100
AcDb2dVertex
 10
60.1043812696149
 20
204.1730296060479
 30
0.0
  0
SEQEND
  5
225
330
222
100
AcDbEntity
  8
Layer 1
370
    25
  0
POLYLINE
  5
226
330
B6
100
AcDbEntity
  8
Layer 1
 62
   253
420
 10066329
370
    25
100
AcDb2dPolyline
 66
     1
 10
0.0
 20
0.0
 30
0.0
  0
VERTEX
  5
227
330
226
100
AcDbEntity
  8
Layer 1
 62
   253
420
 10066329
370
    25
100
AcDbVertex
100
AcDb2dVertex
 10
122.3071715836043
 20
205.5589924340759
 30
0.0
  0
VERTEX
  5
228
330
226
100
AcDbEntity
  8
Layer 1
 62
   253
420
 10066329
370
    25
100
AcDbVertex
100
AcDb2dVertex
 10
57.704181661643
 20
205.5589924340759
 30
0.0
  0
SEQEND
  5
229
330
226
100
AcDbEntity
  8
Layer 1
370
    25
  0
POLYLINE
  5
22A
330
B6
100
AcDbEntity
  8
Layer 1
 62
   253
420
 10066329
370
    25
100
AcDb2dPolyline
 66
     1
 10
0.0
 20
0.0
 30
0.0
  0
VERTEX
  5
22B
330
22A
100
AcDbEntity
  8
Layer 1
 62
   253
420
 10066329
370
    25
100
AcDbVertex
100
AcDb2dVertex
 10
57.48593471867612
 20
205.9367474032364
 30
0.0
  0
VERTEX
  5
22C
330
22A
100
AcDbEntity
  8
Layer 1
 62
   253
420
 10066329
370
    25
100
AcDbVertex
100
AcDb2dVertex
 10
122.6740744948272
 20
205.9367474032364
 30
0.0
  0
SEQEND
  5
22D
330
22A
100
AcDbEntity
  8
Layer 1
370
    25
  0
POLYLINE
  5
22E
330
B6
100
AcDbEntity
  8
Layer 1
 62
     7
420
 16777215
370
    25
100
AcDb2dPolyline
 66
     1
 10
0.0
 20
0.0
 30
0.0
  0
VERTEX
  5
22F
330
22E
100
AcDbEntity
  8
Layer 1
 62
     7
420
 16777215
370
    25
100
AcDbVertex
100
AcDb2dVertex
 10
192.0566207912966
 20
183.0594034866039
 30
0.0
  0
VERTEX
  5
230
330
22E
100
AcDbEntity
  8
Layer 1
 62
     7
420
 16777215
370
    25
100
AcDbVertex
100
AcDb2dVertex
 10
192.0566207912966
 20
57.8569717472086
 30
0.0
  0
SEQEND
  5
231
330
22E
100
AcDbEntity
  8
Layer 1
370
    25
  0
POLYLINE
  5
232
330
B6
100
AcDbEntity
  8
Layer 1
 62
     7
420
 16777215
370
    25
100
AcDb2dPolyline
 66
     1
 10
0.0
 20
0.0
 30
0.0
  0
VERTEX
  5
233
330
232
100
AcDbEntity
  8
Layer 1
 62
     7
420
 16777215
370
    25
100
AcDbVertex
100
AcDb2dVertex
 10
56.17662531576278
 20
240.5992539851921
 30
0.0
  0
VERTEX
  5
234
330
232
100
AcDbEntity
  8
Layer 1
 62
     7
420
 16777215
370
    25
100
AcDbVertex
100
AcDb2dVertex
 10
27.81985341509223
 20
240.5992539851921
 30
0.0
  0
SEQEND
  5
235
330
232
100
AcDbEntity
  8
Layer 1
370
    25
  0
SPLINE
  5
236
330
B6
100
AcDbEntity
  8
Layer 1
 62
     7
420
 16777215
370
    25
100
AcDbSpline
210
0.0
220
0.0
230
1.0
 70
     8
 71
     3
 72
     8
 73
     4
 74
     0
 42
0.0000000001
 43
0.0000000001
 40
0.0
 40
0.0
 40
0.0
 40
0.0
 40
1.0
 40
1.0
 40
1.0
 40
1.0
 10
181.8088330004638
 20
219.7943086248615
 30
0.0
 10
170.7535142951647
 20
230.8494550752726
 30
0.0
 10
157.7882333928517
 20
239.8122214023857
 30
0.0
 10
143.5396535756979
 20
246.248008524034
 30
0.0
  0
SPLINE
  5
237
330
B6
100
AcDbEntity
  8
Layer 1
 62
     7
420
 16777215
370
    25
100
AcDbSpline
210
0.0
220
0.0
230
1.0
 70
     8
 71
     3
 72
     8
 73
     4
 74
     0
 42
0.0000000001
 43
0.0000000001
 40
0.0
 40
0.0
 40
0.0
 40
0.0
 40
1.0
 40
1.0
 40
1.0
 40
1.0
 10
136.0331300708752
 20
249.3592763092492
 30
0.0
 10
121.393187148417
 20
254.8955484062936
 30
0.0
 10
105.8702656705933
 20
257.7324141550872
 30
0.0
 10
90.21780851707013
 20
257.7324141550872
 30
0.0
  0
SPLINE
  5
238
330
B6
100
AcDbEntity
  8
Layer 1
 62
     7
420
 16777215
370
    25
100
AcDbSpline
210
0.0
220
0.0
230
1.0
 70
     8
 71
     3
 72
     8
 73
     4
 74
     0
 42
0.0000000001
 43
0.0000000001
 40
0.0
 40
0.0
 40
0.0
 40
0.0
 40
1.0
 40
1.0
 40
1.0
 40
1.0
 10
57.704181661643
 20
115.0338811969956
 30
0.0
 10
57.5691338295309
 20
114.9560219876656
 30
0.0
 10
57.48593471867612
 20
114.8120169013828
 30
0.0
 10
57.48593471867612
 20
114.6559539729472
 30
0.0
  0
SPLINE
  5
239
330
B6
100
AcDbEntity
  8
Layer 1
 62
     7
420
 16777215
370
    25
100
AcDbSpline
210
0.0
220
0.0
230
1.0
 70
     8
 71
     3
 72
     8
 73
     4
 74
     0
 42
0.0000000001
 43
0.0000000001
 40
0.0
 40
0.0
 40
0.0
 40
0.0
 40
1.0
 40
1.0
 40
1.0
 40
1.0
 10
55.39114302694752
 20
106.8266248082034
 30
0.0
 10
55.39114302694752
 20
106.6064830614697
 30
0.0
 10
55.55495742533859
 20
106.4207922923155
 30
0.0
 10
55.77372113296916
 20
106.3939205298034
 30
0.0
  0
SPLINE
  5
23A
330
B6
100
AcDbEntity
  8
Layer 1
 62
     7
420
 16777215
370
    25
100
AcDbSpline
210
0.0
220
0.0
230
1.0
 70
     8
 71
     3
 72
     8
 73
     4
 74
     0
 42
0.0000000001
 43
0.0000000001
 40
0.0
 40
0.0
 40
0.0
 40
0.0
 40
1.0
 40
1.0
 40
1.0
 40
1.0
 10
55.77372113296916
 20
108.5839691745397
 30
0.0
 10
55.55495742533859
 20
108.556408392476
 30
0.0
 10
55.39114302694752
 20
108.3710621330977
 30
0.0
 10
55.39114302694752
 20
108.1512648961397
 30
0.0
  0
SPLINE
  5
23B
330
B6
100
AcDbEntity
  8
Layer 1
 62
     7
420
 16777215
370
    25
100
AcDbSpline
210
0.0
220
0.0
230
1.0
 70
     8
 71
     3
 72
     8
 73
     4
 74
     0
 42
0.0000000001
 43
0.0000000001
 40
0.0
 40
0.0
 40
0.0
 40
0.0
 40
1.0
 40
1.0
 40
1.0
 40
1.0
 10
55.77372113296916
 20
88.94484489550328
 30
0.0
 10
55.55495742533859
 20
88.91762862321538
 30
0.0
 10
55.39114302694752
 20
88.73159334428546
 30
0.0
 10
55.39114302694752
 20
88.5114515975517
 30
0.0
  0
SPLINE
  5
23C
330
B6
100
AcDbEntity
  8
Layer 1
 62
     7
420
 16777215
370
    25
100
AcDbSpline
210
0.0
220
0.0
230
1.0
 70
     8
 71
     3
 72
     8
 73
     4
 74
     0
 42
0.0000000001
 43
0.0000000001
 40
0.0
 40
0.0
 40
0.0
 40
0.0
 40
1.0
 40
1.0
 40
1.0
 40
1.0
 10
55.39114302694752
 20
87.18715601939122
 30
0.0
 10
55.39114302694752
 20
86.96735878243327
 30
0.0
 10
55.55495742533859
 20
86.78166801327913
 30
0.0
 10
55.77372113296916
 20
86.75445174099124
 30
0.0
  0
SPLINE
  5
23D
330
B6
100
AcDbEntity
  8
Layer 1
 62
     7
420
 16777215
370
    25
100
AcDbSpline
210
0.0
220
0.0
230
1.0
 70
     8
 71
     3
 72
     8
 73
     4
 74
     0
 42
0.0000000001
 43
0.0000000001
 40
0.0
 40
0.0
 40
0.0
 40
0.0
 40
1.0
 40
1.0
 40
1.0
 40
1.0
 10
57.48593471867612
 20
205.9367474032364
 30
0.0
 10
57.48593471867612
 20
205.7810289845765
 30
0.0
 10
57.5691338295309
 20
205.6370238982937
 30
0.0
 10
57.704181661643
 20
205.5589924340759
 30
0.0
  0
SPLINE
  5
23E
330
B6
100
AcDbEntity
  8
Layer 1
 62
     7
420
 16777215
370
    25
100
AcDbSpline
210
0.0
220
0.0
230
1.0
 70
     8
 71
     3
 72
     8
 73
     4
 74
     0
 42
0.0000000001
 43
0.0000000001
 40
0.0
 40
0.0
 40
0.0
 40
0.0
 40
1.0
 40
1.0
 40
1.0
 40
1.0
 10
122.9500268252399
 20
114.6559539729472
 30
0.0
 10
122.9500268252399
 20
114.8120169013828
 30
0.0
 10
122.8666554594973
 20
114.9560219876656
 30
0.0
 10
122.7319521371609
 20
115.0338811969956
 30
0.0
  0
SPLINE
  5
23F
330
B6
100
AcDbEntity
  8
Layer 1
 62
     7
420
 16777215
370
    25
100
AcDbSpline
210
0.0
220
0.0
230
1.0
 70
     8
 71
     3
 72
     8
 73
     4
 74
     0
 42
0.0000000001
 43
0.0000000001
 40
0.0
 40
0.0
 40
0.0
 40
0.0
 40
1.0
 40
1.0
 40
1.0
 40
1.0
 10
124.6625849207227
 20
106.3939205298034
 30
0.0
 10
124.8810041185775
 20
106.4207922923155
 30
0.0
 10
125.0449907718564
 20
106.6064830614697
 30
0.0
 10
125.0449907718564
 20
106.8266248082034
 30
0.0
  0
SPLINE
  5
240
330
B6
100
AcDbEntity
  8
Layer 1
 62
     7
420
 16777215
370
    25
100
AcDbSpline
210
0.0
220
0.0
230
1.0
 70
     8
 71
     3
 72
     8
 73
     4
 74
     0
 42
0.0000000001
 43
0.0000000001
 40
0.0
 40
0.0
 40
0.0
 40
0.0
 40
1.0
 40
1.0
 40
1.0
 40
1.0
 10
125.0449907718564
 20
108.1512648961397
 30
0.0
 10
125.0449907718564
 20
108.3710621330977
 30
0.0
 10
124.8810041185775
 20
108.556408392476
 30
0.0
 10
124.6625849207227
 20
108.5839691745397
 30
0.0
  0
SPLINE
  5
241
330
B6
100
AcDbEntity
  8
Layer 1
 62
     7
420
 16777215
370
    25
100
AcDbSpline
210
0.0
220
0.0
230
1.0
 70
     8
 71
     3
 72
     8
 73
     4
 74
     0
 42
0.0000000001
 43
0.0000000001
 40
0.0
 40
0.0
 40
0.0
 40
0.0
 40
1.0
 40
1.0
 40
1.0
 40
1.0
 10
125.0449907718564
 20
88.5114515975517
 30
0.0
 10
125.0449907718564
 20
88.73159334428546
 30
0.0
 10
124.8810041185775
 20
88.91762862321538
 30
0.0
 10
124.6625849207227
 20
88.94484489550328
 30
0.0
  0
SPLINE
  5
242
330
B6
100
AcDbEntity
  8
Layer 1
 62
     7
420
 16777215
370
    25
100
AcDbSpline
210
0.0
220
0.0
230
1.0
 70
     8
 71
     3
 72
     8
 73
     4
 74
     0
 42
0.0000000001
 43
0.0000000001
 40
0.0
 40
0.0
 40
0.0
 40
0.0
 40
1.0
 40
1.0
 40
1.0
 40
1.0
 10
124.6625849207227
 20
86.75445174099124
 30
0.0
 10
124.8810041185775
 20
86.78166801327913
 30
0.0
 10
125.0449907718564
 20
86.96735878243327
 30
0.0
 10
125.0449907718564
 20
87.18715601939122
 30
0.0
  0
SPLINE
  5
243
330
B6
100
AcDbEntity
  8
Layer 1
 62
     7
420
 16777215
370
    25
100
AcDbSpline
210
0.0
220
0.0
230
1.0
 70
     8
 71
     3
 72
     8
 73
     4
 74
     0
 42
0.0000000001
 43
0.0000000001
 40
0.0
 40
0.0
 40
0.0
 40
0.0
 40
1.0
 40
1.0
 40
1.0
 40
1.0
 10
167.1247928267037
 20
159.7457379389255
 30
0.0
 10
167.2753435987266
 20
159.7054302951574
 30
0.0
 10
167.4362296640234
 20
159.7484940171319
 30
0.0
 10
167.5464727922782
 20
159.8589094002746
 30
0.0
  0
POLYLINE
  5
244
330
B6
100
AcDbEntity
  8
Layer 1
 62
     7
420
 16777215
370
    25
100
AcDb2dPolyline
 66
     1
 10
0.0
 20
0.0
 30
0.0
  0
VERTEX
  5
245
330
244
100
AcDbEntity
  8
Layer 1
 62
     7
420
 16777215
370
    25
100
AcDbVertex
100
AcDb2dVertex
 10
122.9500268252399
 20
79.99379190076722
 30
0.0
  0
VERTEX
  5
246
330
244
100
AcDbEntity
  8
Layer 1
 62
     7
420
 16777215
370
    25
100
AcDbVertex
100
AcDb2dVertex
 10
57.48593471867612
 20
79.99379190076722
 30
0.0
  0
SEQEND
  5
247
330
244
100
AcDbEntity
  8
Layer 1
370
    25
  0
POLYLINE
  5
248
330
B6
100
AcDbEntity
  8
Layer 1
 62
     7
420
 16777215
370
    25
100
AcDb2dPolyline
 66
     1
 10
0.0
 20
0.0
 30
0.0
  0
VERTEX
  5
249
330
248
100
AcDbEntity
  8
Layer 1
 62
     7
420
 16777215
370
    25
100
AcDbVertex
100
AcDb2dVertex
 10
57.48593471867612
 20
240.5992539851921
 30
0.0
  0
VERTEX
  5
24A
330
248
100
AcDbEntity
  8
Layer 1
 62
     7
420
 16777215
370
    25
100
AcDbVertex
100
AcDb2dVertex
 10
57.48593471867612
 20
205.9367474032364
 30
0.0
  0
SEQEND
  5
24B
330
248
100
AcDbEntity
  8
Layer 1
370
    25
  0
POLYLINE
  5
24C
330
B6
100
AcDbEntity
  8
Layer 1
 62
     7
420
 16777215
370
    25
100
AcDb2dPolyline
 66
     1
 10
0.0
 20
0.0
 30
0.0
  0
VERTEX
  5
24D
330
24C
100
AcDbEntity
  8
Layer 1
 62
     7
420
 16777215
370
    25
100
AcDbVertex
100
AcDb2dVertex
 10
57.48593471867612
 20
114.6559539729472
 30
0.0
  0
VERTEX
  5
24E
330
24C
100
AcDbEntity
  8
Layer 1
 62
     7
420
 16777215
370
    25
100
AcDbVertex
100
AcDb2dVertex
 10
57.48593471867612
 20
108.7979097453091
 30
0.0
  0
SEQEND
  5
24F
330
24C
100
AcDbEntity
  8
Layer 1
370
    25
  0
POLYLINE
  5
250
330
B6
100
AcDbEntity
  8
Layer 1
 62
     7
420
 16777215
370
    25
100
AcDb2dPolyline
 66
     1
 10
0.0
 20
0.0
 30
0.0
  0
VERTEX
  5
251
330
250
100
AcDbEntity
  8
Layer 1
 62
     7
420
 16777215
370
    25
100
AcDbVertex
100
AcDb2dVertex
 10
57.48593471867612
 20
106.1792909394824
 30
0.0
  0
VERTEX
  5
252
330
250
100
AcDbEntity
  8
Layer 1
 62
     7
420
 16777215
370
    25
100
AcDbVertex
100
AcDb2dVertex
 10
57.48593471867612
 20
89.1587854662727
 30
0.0
  0
SEQEND
  5
253
330
250
100
AcDbEntity
  8
Layer 1
370
    25
  0
POLYLINE
  5
254
330
B6
100
AcDbEntity
  8
Layer 1
 62
     7
420
 16777215
370
    25
100
AcDb2dPolyline
 66
     1
 10
0.0
 20
0.0
 30
0.0
  0
VERTEX
  5
255
330
254
100
AcDbEntity
  8
Layer 1
 62
     7
420
 16777215
370
    25
100
AcDbVertex
100
AcDb2dVertex
 10
57.48593471867612
 20
86.54016666044602
 30
0.0
  0
VERTEX
  5
256
330
254
100
AcDbEntity
  8
Layer 1
 62
     7
420
 16777215
370
    25
100
AcDbVertex
100
AcDb2dVertex
 10
57.48593471867612
 20
79.99379190076722
 30
0.0
  0
SEQEND
  5
257
330
254
100
AcDbEntity
  8
Layer 1
370
    25
  0
POLYLINE
  5
258
330
B6
100
AcDbEntity
  8
Layer 1
 62
     7
420
 16777215
370
    25
100
AcDb2dPolyline
 66
     1
 10
0.0
 20
0.0
 30
0.0
  0
VERTEX
  5
259
330
258
100
AcDbEntity
  8
Layer 1
 62
     7
420
 16777215
370
    25
100
AcDbVertex
100
AcDb2dVertex
 10
60.1043812696149
 20
204.1730296060479
 30
0.0
  0
VERTEX
  5
25A
330
258
100
AcDbEntity
  8
Layer 1
 62
     7
420
 16777215
370
    25
100
AcDbVertex
100
AcDb2dVertex
 10
60.1043812696149
 20
116.4198440250235
 30
0.0
  0
SEQEND
  5
25B
330
258
100
AcDbEntity
  8
Layer 1
370
    25
  0
POLYLINE
  5
25C
330
B6
100
AcDbEntity
  8
Layer 1
 62
     7
420
 16777215
370
    25
100
AcDb2dPolyline
 66
     1
 10
0.0
 20
0.0
 30
0.0
  0
VERTEX
  5
25D
330
25C
100
AcDbEntity
  8
Layer 1
 62
     7
420
 16777215
370
    25
100
AcDbVertex
100
AcDb2dVertex
 10
120.7689354346744
 20
116.1669738495892
 30
0.0
  0
VERTEX
  5
25E
330
25C
100
AcDbEntity
  8
Layer 1
 62
     7
420
 16777215
370
    25
100
AcDbVertex
100
AcDb2dVertex
 10
122.7319521371609
 20
115.0338811969956
 30
0.0
  0
SEQEND
  5
25F
330
25C
100
AcDbEntity
  8
Layer 1
370
    25
  0
POLYLINE
  5
260
330
B6
100
AcDbEntity
  8
Layer 1
  6
AI-Linetype-1
 62
     7
420
 16777215
370
    25
100
AcDb2dPolyline
 66
     1
 10
0.0
 20
0.0
 30
0.0
  0
VERTEX
  5
261
330
260
100
AcDbEntity
  8
Layer 1
  6
AI-Linetype-1
 62
     7
420
 16777215
370
    25
100
AcDbVertex
100
AcDb2dVertex
 10
90.21780851707013
 20
242.7812066501971
 30
0.0
  0
VERTEX
  5
262
330
260
100
AcDbEntity
  8
Layer 1
  6
AI-Linetype-1
 62
     7
420
 16777215
370
    25
100
AcDbVertex
100
AcDb2dVertex
 10
90.21780851707013
 20
62.03484179828874
 30
0.0
  0
SEQEND
  5
263
330
260
100
AcDbEntity
  8
Layer 1
  6
AI-Linetype-1
370
    25
  0
POLYLINE
  5
265
330
B6
100
AcDbEntity
  8
Layer 1
 62
     7
420
 16777215
370
    25
100
AcDb2dPolyline
 66
     1
 10
0.0
 20
0.0
 30
0.0
  0
VERTEX
  5
266
330
265
100
AcDbEntity
  8
Layer 1
 62
     7
420
 16777215
370
    25
100
AcDbVertex
100
AcDb2dVertex
 10
122.9500268252399
 20
206.608369211151
 30
0.0
  0
VERTEX
  5
267
330
265
100
AcDbEntity
  8
Layer 1
 62
     7
420
 16777215
370
    25
100
AcDbVertex
100
AcDb2dVertex
 10
146.3835817748953
 20
230.0417519059185
 30
0.0
  0
SEQEND
  5
268
330
265
100
AcDbEntity
  8
Layer 1
370
    25
  0
POLYLINE
  5
269
330
B6
100
AcDbEntity
  8
Layer 1
 62
     7
420
 16777215
370
    25
100
AcDb2dPolyline
 66
     1
 10
0.0
 20
0.0
 30
0.0
  0
VERTEX
  5
26A
330
269
100
AcDbEntity
  8
Layer 1
 62
     7
420
 16777215
370
    25
100
AcDbVertex
100
AcDb2dVertex
 10
122.9500268252399
 20
240.5992539851921
 30
0.0
  0
VERTEX
  5
26B
330
269
100
AcDbEntity
  8
Layer 1
 62
     7
420
 16777215
370
    25
100
AcDbVertex
100
AcDb2dVertex
 10
122.9500268252399
 20
206.608369211151
 30
0.0
  0
SEQEND
  5
26C
330
269
100
AcDbEntity
  8
Layer 1
370
    25
  0
POLYLINE
  5
26D
330
B6
100
AcDbEntity
  8
Layer 1
 62
     7
420
 16777215
370
    25
100
AcDb2dPolyline
 66
     1
 10
0.0
 20
0.0
 30
0.0
  0
VERTEX
  5
26E
330
26D
100
AcDbEntity
  8
Layer 1
 62
     7
420
 16777215
370
    25
100
AcDbVertex
100
AcDb2dVertex
 10
122.9500268252399
 20
114.6559539729472
 30
0.0
  0
VERTEX
  5
26F
330
26D
100
AcDbEntity
  8
Layer 1
 62
     7
420
 16777215
370
    25
100
AcDbVertex
100
AcDb2dVertex
 10
122.9500268252399
 20
108.7979097453091
 30
0.0
  0
SEQEND
  5
270
330
26D
100
AcDbEntity
  8
Layer 1
370
    25
  0
POLYLINE
  5
271
330
B6
100
AcDbEntity
  8
Layer 1
 62
     7
420
 16777215
370
    25
100
AcDb2dPolyline
 66
     1
 10
0.0
 20
0.0
 30
0.0
  0
VERTEX
  5
272
330
271
100
AcDbEntity
  8
Layer 1
 62
     7
420
 16777215
370
    25
100
AcDbVertex
100
AcDb2dVertex
 10
122.9500268252399
 20
106.1792909394824
 30
0.0
  0
VERTEX
  5
273
330
271
100
AcDbEntity
  8
Layer 1
 62
     7
420
 16777215
370
    25
100
AcDbVertex
100
AcDb2dVertex
 10
122.9500268252399
 20
89.1587854662727
 30
0.0
  0
SEQEND
  5
274
330
271
100
AcDbEntity
  8
Layer 1
370
    25
  0
POLYLINE
  5
275
330
B6
100
AcDbEntity
  8
Layer 1
 62
     7
420
 16777215
370
    25
100
AcDb2dPolyline
 66
     1
 10
0.0
 20
0.0
 30
0.0
  0
VERTEX
  5
276
330
275
100
AcDbEntity
  8
Layer 1
 62
     7
420
 16777215
370
    25
100
AcDbVertex
100
AcDb2dVertex
 10
122.9500268252399
 20
86.54016666044602
 30
0.0
  0
VERTEX
  5
277
330
275
100
AcDbEntity
  8
Layer 1
 62
     7
420
 16777215
370
    25
100
AcDbVertex
100
AcDb2dVertex
 10
122.9500268252399
 20
79.99379190076722
 30
0.0
  0
SEQEND
  5
278
330
275
100
AcDbEntity
  8
Layer 1
370
    25
  0
POLYLINE
  5
279
330
B6
100
AcDbEntity
  8
Layer 1
  6
AI-Linetype-2
 62
     7
420
 16777215
370
    25
100
AcDb2dPolyline
 66
     1
 10
0.0
 20
0.0
 30
0.0
  0
VERTEX
  5
27A
330
279
100
AcDbEntity
  8
Layer 1
  6
AI-Linetype-2
 62
     7
420
 16777215
370
    25
100
AcDbVertex
100
AcDb2dVertex
 10
170.7628160591112
 20
208.748119428621
 30
0.0
  0
VERTEX
  5
27B
330
279
100
AcDbEntity
  8
Layer 1
  6
AI-Linetype-2
 62
     7
420
 16777215
370
    25
100
AcDbVertex
100
AcDb2dVertex
 10
88.67492148616698
 20
126.6600526007889
 30
0.0
  0
SEQEND
  5
27C
330
279
100
AcDbEntity
  8
Layer 1
  6
AI-Linetype-2
370
    25
  0
POLYLINE
  5
27E
330
B6
100
AcDbEntity
  8
Layer 1
 62
     7
420
 16777215
370
    25
100
AcDb2dPolyline
 66
     1
 10
0.0
 20
0.0
 30
0.0
  0
VERTEX
  5
27F
330
27E
100
AcDbEntity
  8
Layer 1
 62
     7
420
 16777215
370
    25
100
AcDbVertex
100
AcDb2dVertex
 10
60.1043812696149
 20
116.4198440250235
 30
0.0
  0
VERTEX
  5
280
330
27E
100
AcDbEntity
  8
Layer 1
 62
     7
420
 16777215
370
    25
100
AcDbVertex
100
AcDb2dVertex
 10
57.704181661643
 20
115.0338811969956
 30
0.0
  0
SEQEND
  5
281
330
27E
100
AcDbEntity
  8
Layer 1
370
    25
  0
POLYLINE
  5
282
330
B6
100
AcDbEntity
  8
Layer 1
 62
     7
420
 16777215
370
    25
100
AcDb2dPolyline
 66
     1
 10
0.0
 20
0.0
 30
0.0
  0
VERTEX
  5
283
330
282
100
AcDbEntity
  8
Layer 1
 62
     7
420
 16777215
370
    25
100
AcDbVertex
100
AcDb2dVertex
 10
57.704181661643
 20
205.5589924340759
 30
0.0
  0
VERTEX
  5
284
330
282
100
AcDbEntity
  8
Layer 1
 62
     7
420
 16777215
370
    25
100
AcDbVertex
100
AcDb2dVertex
 10
60.1043812696149
 20
204.1730296060479
 30
0.0
  0
SEQEND
  5
285
330
282
100
AcDbEntity
  8
Layer 1
370
    25
  0
POLYLINE
  5
286
330
B6
100
AcDbEntity
  8
Layer 1
 62
     7
420
 16777215
370
    25
100
AcDb2dPolyline
 66
     1
 10
0.0
 20
0.0
 30
0.0
  0
VERTEX
  5
287
330
286
100
AcDbEntity
  8
Layer 1
 62
     7
420
 16777215
370
    25
100
AcDbVertex
100
AcDb2dVertex
 10
164.9343996721916
 20
160.3326103419943
 30
0.0
  0
VERTEX
  5
288
330
286
100
AcDbEntity
  8
Layer 1
 62
     7
420
 16777215
370
    25
100
AcDbVertex
100
AcDb2dVertex
 10
167.1247928267037
 20
159.7457379389255
 30
0.0
  0
SEQEND
  5
289
330
286
100
AcDbEntity
  8
Layer 1
370
    25
  0
POLYLINE
  5
28A
330
B6
100
AcDbEntity
  8
Layer 1
 62
     7
420
 16777215
370
    25
100
AcDb2dPolyline
 66
     1
 10
0.0
 20
0.0
 30
0.0
  0
VERTEX
  5
28B
330
28A
100
AcDbEntity
  8
Layer 1
 62
     7
420
 16777215
370
    25
100
AcDbVertex
100
AcDb2dVertex
 10
120.7689354346744
 20
116.1669738495892
 30
0.0
  0
VERTEX
  5
28C
330
28A
100
AcDbEntity
  8
Layer 1
 62
     7
420
 16777215
370
    25
100
AcDbVertex
100
AcDb2dVertex
 10
164.9343996721916
 20
160.3326103419943
 30
0.0
  0
SEQEND
  5
28D
330
28A
100
AcDbEntity
  8
Layer 1
370
    25
  0
POLYLINE
  5
28E
330
B6
100
AcDbEntity
  8
Layer 1
 62
     7
420
 16777215
370
    25
100
AcDb2dPolyline
 66
     1
 10
0.0
 20
0.0
 30
0.0
  0
VERTEX
  5
28F
330
28E
100
AcDbEntity
  8
Layer 1
 62
     7
420
 16777215
370
    25
100
AcDbVertex
100
AcDb2dVertex
 10
167.5464727922782
 20
159.8589094002746
 30
0.0
  0
VERTEX
  5
290
330
28E
100
AcDbEntity
  8
Layer 1
 62
     7
420
 16777215
370
    25
100
AcDbVertex
100
AcDb2dVertex
 10
192.0566207912966
 20
184.3685406346293
 30
0.0
  0
SEQEND
  5
291
330
28E
100
AcDbEntity
  8
Layer 1
370
    25
  0
POLYLINE
  5
292
330
B6
100
AcDbEntity
  8
Layer 1
 62
     7
420
 16777215
370
    25
100
AcDb2dPolyline
 66
     1
 10
0.0
 20
0.0
 30
0.0
  0
VERTEX
  5
293
330
292
100
AcDbEntity
  8
Layer 1
 62
     7
420
 16777215
370
    25
100
AcDbVertex
100
AcDb2dVertex
 10
146.3835817748953
 20
230.0417519059185
 30
0.0
  0
VERTEX
  5
294
330
292
100
AcDbEntity
  8
Layer 1
 62
     7
420
 16777215
370
    25
100
AcDbVertex
100
AcDb2dVertex
 10
192.0566207912966
 20
184.3685406346293
 30
0.0
  0
SEQEND
  5
295
330
292
100
AcDbEntity
  8
Layer 1
370
    25
  0
POLYLINE
  5
296
330
B6
100
AcDbEntity
  8
Layer 1
 62
     7
420
 16777215
370
    25
100
AcDb2dPolyline
 66
     1
 10
0.0
 20
0.0
 30
0.0
  0
VERTEX
  5
297
330
296
100
AcDbEntity
  8
Layer 1
 62
     7
420
 16777215
370
    25
100
AcDbVertex
100
AcDb2dVertex
 10
122.9500268252399
 20
240.5992539851921
 30
0.0
  0
VERTEX
  5
298
330
296
100
AcDbEntity
  8
Layer 1
 62
     7
420
 16777215
370
    25
100
AcDbVertex
100
AcDb2dVertex
 10
57.48593471867612
 20
240.5992539851921
 30
0.0
  0
SEQEND
  5
299
330
296
100
AcDbEntity
  8
Layer 1
370
    25
  0
POLYLINE
  5
29A
330
B6
100
AcDbEntity
  8
Layer 1
370
     0
100
AcDb2dPolyline
 66
     1
 10
0.0
 20
0.0
 30
0.0
  0
VERTEX
  5
29B
330
29A
100
AcDbEntity
  8
Layer 1
370
     0
100
AcDbVertex
100
AcDb2dVertex
 10
-61.15565285045691
 20
283.7544433051871
 30
0.0
  0
VERTEX
  5
29C
330
29A
100
AcDbEntity
  8
Layer 1
370
     0
100
AcDbVertex
100
AcDb2dVertex
 10
305.4434007502107
 20
283.7544433051871
 30
0.0
  0
VERTEX
  5
29D
330
29A
100
AcDbEntity
  8
Layer 1
370
     0
100
AcDbVertex
100
AcDb2dVertex
 10
305.4434007502107
 20
24.51634917498276
 30
0.0
  0
VERTEX
  5
29E
330
29A
100
AcDbEntity
  8
Layer 1
370
     0
100
AcDbVertex
100
AcDb2dVertex
 10
-61.15565285045691
 20
24.51634917498276
 30
0.0
  0
VERTEX
  5
29F
330
29A
100
AcDbEntity
  8
Layer 1
370
     0
100
AcDbVertex
100
AcDb2dVertex
 10
-61.15565285045691
 20
283.7544433051871
 30
0.0
  0
SEQEND
  5
2A0
330
29A
100
AcDbEntity
  8
Layer 1
370
     0
  0
ENDBLK
  5
B9
330
B6
100
AcDbEntity
  8
0
100
AcDbBlockEnd
  0
ENDSEC
  0
SECTION
  2
ENTITIES
  0
INSERT
  5
3D
330
1F
100
AcDbEntity
  8
Layer 1
100
AcDbBlockReference
  2
block 2
 10
0.0
 20
0.0
 30
0.0
  0
MTEXT
  5
4C
330
1F
100
AcDbEntity
  8
Layer 1
 62
     7
420
 16777215
100
AcDbMText
 10
133.9591812205823
 20
36.89492992911491
 30
0.0
 40
3.920669683827083
 41
0.0
 71
     7
 72
     1
  1
\fArial|b0|i0|c0|p34;\W0.978972;104.65.45
 73
     1
 44
1.0
  0
MTEXT
  5
4D
330
1F
100
AcDbEntity
  8
Layer 1
 62
     7
420
 16777215
100
AcDbMText
 10
195.9998796850596
 20
16.60606021292693
 30
0.0
 40
2.63876917007248
 41
0.0
 71
     7
 72
     1
  1
\fCentury Gothic|b0|i0|c0|p34;\W0.990688;A4
 73
     1
 44
1.0
  0
MTEXT
  5
4E
330
1F
100
AcDbEntity
  8
Layer 1
 62
     7
420
 16777215
100
AcDbMText
 10
164.0283389618477
 20
7.374920770468586
 30
0.0
 40
1.360006220349461
 41
0.0
 71
     7
 72
     1
  1
\fCentury Gothic|b0|i0|c0|p34;\W0.968579;SHEET 1 OF 1
 73
     1
 44
1.0
  0
MTEXT
  5
4F
330
1F
100
AcDbEntity
  8
Layer 1
 62
     7
420
 16777215
100
AcDbMText
 10
14.37983804173209
 20
7.374920770468586
 30
0.0
 40
1.360007461723616
 41
0.0
 71
     7
 72
     1
  1
\fCentury Gothic|b0|i0|c0|p34;\W0.97601;SCALE:
 73
     1
 44
1.0
  0
MTEXT
  5
50
330
1F
100
AcDbEntity
  8
Layer 1
 62
     7
420
 16777215
100
AcDbMText
 10
92.70413556899108
 20
38.98507073887026
 30
0.0
 40
1.360002582392795
 41
0.0
 71
     7
 72
     1
  1
\fCentury Gothic|b0|i0|c0|p34;\W0.980594;CONTACT:
 73
     1
 44
1.0
  0
MTEXT
  5
51
330
1F
100
AcDbEntity
  8
Layer 1
 62
     7
420
 16777215
100
AcDbMText
 10
12.30502791699966
 20
17.3009364307078
 30
0.0
 40
1.401043046795339
 41
0.0
 71
     7
 72
     1
  1
\fArial|b0|i0|c0|p34;\W0.978962;Disclaimer: This information is intended solely as a guide for use fo Marley NZ products. Before using you should ensure that the product is suitable for use in the specific application. 
 73
     1
 44
1.0
  0
MTEXT
  5
52
330
1F
100
AcDbEntity
  8
Layer 1
 62
     7
420
 16777215
100
AcDbMText
 10
12.30502791699966
 20
14.80186251708239
 30
0.0
 40
1.401046053346698
 41
0.0
 71
     7
 72
     1
  1
\fArial|b0|i0|c0|p34;\W0.980854;Marley NZ makes no warranty regarding the use of this information with non-Marley NZ products. This drawing is the property of Marley NZ Ltd.
 73
     1
 44
1.0
  0
MTEXT
  5
53
330
1F
100
AcDbEntity
  8
Layer 1
 62
     7
420
 16777215
100
AcDbMText
 10
87.19663003822562
 20
33.60899568757105
 30
0.0
 40
2.159002374990015
 41
0.0
 71
     7
 72
     1
  1
\fArial,Bold|b0|i0|c0|p34;\W0.984785;0800 MARLEY
 73
     1
 44
1.0
  0
MTEXT
  5
54
330
1F
100
AcDbEntity
  8
Layer 1
 62
     7
420
 16777215
100
AcDbMText
 10
85.09804873896326
 20
30.43399359383356
 30
0.0
 40
2.158997867676741
 41
0.0
 71
     7
 72
     1
  1
\fArial|b0|i0|c0|p34;\W0.979154;www.marley.co.nz
 73
     1
 44
1.0
  0
MTEXT
  5
55
330
1F
100
AcDbEntity
  8
Layer 1
 62
     7
420
 16777215
100
AcDbMText
 10
23.53673562750636
 20
-8.48424224853225
 30
0.0
 40
1.919105482030737
 41
0.0
 71
     7
 72
     1
  1
\fArial|b0|i0|c0|p34;\W0.93051;1:1
 73
     1
 44
1.0
  0
MTEXT
  5
56
330
1F
100
AcDbEntity
  8
Layer 1
 62
     7
420
 16777215
100
AcDbMText
 10
122.1442184596527
 20
37.63080281021552
 30
0.0
 40
1.360004643435278
 41
0.0
 71
     7
 72
     1
  1
\fCentury Gothic|b0|i0|c0|p34;\W0.979211;DWG NO.
 73
     1
 44
1.0
  0
MTEXT
  5
57
330
1F
100
AcDbEntity
  8
Layer 1
 62
     7
420
 16777215
100
AcDbMText
 10
128.9875606460678
 20
7.325311362753938
 30
0.0
 40
1.360000406379835
 41
0.0
 71
     7
 72
     1
  1
\fCentury Gothic|b0|i0|c0|p34;\W0.971081;DATE: 30/06/11
 73
     1
 44
1.0
  0
POLYLINE
  5
58
330
1F
100
AcDbEntity
  8
Layer 1
 62
     9
420
 12632256
370
    50
100
AcDb2dPolyline
 66
     1
 10
0.0
 20
0.0
 30
0.0
  0
VERTEX
  5
59
330
58
100
AcDbEntity
  8
Layer 1
 62
     9
420
 12632256
370
    50
100
AcDbVertex
100
AcDb2dVertex
 10
205.0697885524453
 20
5.18590565505973
 30
0.0
  0
VERTEX
  5
5A
330
58
100
AcDbEntity
  8
Layer 1
 62
     9
420
 12632256
370
    50
100
AcDbVertex
100
AcDb2dVertex
 10
205.0697885524453
 20
292.2059571250187
 30
0.0
  0
SEQEND
  5
5B
330
58
100
AcDbEntity
  8
Layer 1
370
    50
  0
POLYLINE
  5
5C
330
1F
100
AcDbEntity
  8
Layer 1
 62
     9
420
 12632256
370
    50
100
AcDb2dPolyline
 66
     1
 10
0.0
 20
0.0
 30
0.0
  0
VERTEX
  5
5D
330
5C
100
AcDbEntity
  8
Layer 1
 62
     9
420
 12632256
370
    50
100
AcDbVertex
100
AcDb2dVertex
 10
205.0697885524453
 20
13.68771790215759
 30
0.0
  0
VERTEX
  5
5E
330
5C
100
AcDbEntity
  8
Layer 1
 62
     9
420
 12632256
370
    50
100
AcDbVertex
100
AcDb2dVertex
 10
192.0524866739871
 20
13.68771790215759
 30
0.0
  0
SEQEND
  5
5F
330
5C
100
AcDbEntity
  8
Layer 1
370
    50
  0
POLYLINE
  5
60
330
1F
100
AcDbEntity
  8
Layer 1
 62
     9
420
 12632256
370
    50
100
AcDb2dPolyline
 66
     1
 10
0.0
 20
0.0
 30
0.0
  0
VERTEX
  5
61
330
60
100
AcDbEntity
  8
Layer 1
 62
     9
420
 12632256
370
    50
100
AcDbVertex
100
AcDb2dVertex
 10
192.0524866739871
 20
11.21827182925065
 30
0.0
  0
VERTEX
  5
62
330
60
100
AcDbEntity
  8
Layer 1
 62
     9
420
 12632256
370
    50
100
AcDbVertex
100
AcDb2dVertex
 10
192.0524866739871
 20
22.18987465903124
 30
0.0
  0
SEQEND
  5
63
330
60
100
AcDbEntity
  8
Layer 1
370
    50
  0
POLYLINE
  5
64
330
1F
100
AcDbEntity
  8
Layer 1
 62
     9
420
 12632256
370
    50
100
AcDb2dPolyline
 66
     1
 10
0.0
 20
0.0
 30
0.0
  0
VERTEX
  5
65
330
64
100
AcDbEntity
  8
Layer 1
 62
     9
420
 12632256
370
    50
100
AcDbVertex
100
AcDb2dVertex
 10
160.8667727493663
 20
5.18590565505973
 30
0.0
  0
VERTEX
  5
66
330
64
100
AcDbEntity
  8
Layer 1
 62
     9
420
 12632256
370
    50
100
AcDbVertex
100
AcDb2dVertex
 10
160.8667727493663
 20
11.21827182925065
 30
0.0
  0
SEQEND
  5
67
330
64
100
AcDbEntity
  8
Layer 1
370
    50
  0
POLYLINE
  5
68
330
1F
100
AcDbEntity
  8
Layer 1
 62
     9
420
 12632256
370
    50
100
AcDb2dPolyline
 66
     1
 10
0.0
 20
0.0
 30
0.0
  0
VERTEX
  5
69
330
68
100
AcDbEntity
  8
Layer 1
 62
     9
420
 12632256
370
    50
100
AcDbVertex
100
AcDb2dVertex
 10
116.8752859486261
 20
43.35655528394785
 30
0.0
  0
VERTEX
  5
6A
330
68
100
AcDbEntity
  8
Layer 1
 62
     9
420
 12632256
370
    50
100
AcDbVertex
100
AcDb2dVertex
 10
116.9107704555331
 20
22.15439015212423
 30
0.0
  0
SEQEND
  5
6B
330
68
100
AcDbEntity
  8
Layer 1
370
    50
  0
POLYLINE
  5
6C
330
1F
100
AcDbEntity
  8
Layer 1
 62
     9
420
 12632256
370
    50
100
AcDb2dPolyline
 66
     1
 10
0.0
 20
0.0
 30
0.0
  0
VERTEX
  5
6D
330
6C
100
AcDbEntity
  8
Layer 1
 62
     9
420
 12632256
370
    50
100
AcDbVertex
100
AcDb2dVertex
 10
10.05417329683539
 20
22.18987465903124
 30
0.0
  0
VERTEX
  5
6E
330
6C
100
AcDbEntity
  8
Layer 1
 62
     9
420
 12632256
370
    50
100
AcDbVertex
100
AcDb2dVertex
 10
205.0697885524453
 20
22.11925015499302
 30
0.0
  0
SEQEND
  5
6F
330
6C
100
AcDbEntity
  8
Layer 1
370
    50
  0
POLYLINE
  5
70
330
1F
100
AcDbEntity
  8
Layer 1
 62
     9
420
 12632256
370
    50
100
AcDb2dPolyline
 66
     1
 10
0.0
 20
0.0
 30
0.0
  0
VERTEX
  5
71
330
70
100
AcDbEntity
  8
Layer 1
 62
     9
420
 12632256
370
    50
100
AcDbVertex
100
AcDb2dVertex
 10
10.0894855488545
 20
60.36017977814356
 30
0.0
  0
VERTEX
  5
72
330
70
100
AcDbEntity
  8
Layer 1
 62
     9
420
 12632256
370
    50
100
AcDbVertex
100
AcDb2dVertex
 10
10.0894855488545
 20
5.115281151021515
 30
0.0
  0
SEQEND
  5
73
330
70
100
AcDbEntity
  8
Layer 1
370
    50
  0
POLYLINE
  5
74
330
1F
100
AcDbEntity
  8
Layer 1
 62
     9
420
 12632256
370
    50
100
AcDb2dPolyline
 66
     1
 10
0.0
 20
0.0
 30
0.0
  0
VERTEX
  5
75
330
74
100
AcDbEntity
  8
Layer 1
 62
     9
420
 12632256
370
    50
100
AcDbVertex
100
AcDb2dVertex
 10
79.72783035385258
 20
22.15439015212423
 30
0.0
  0
VERTEX
  5
76
330
74
100
AcDbEntity
  8
Layer 1
 62
     9
420
 12632256
370
    50
100
AcDbVertex
100
AcDb2dVertex
 10
79.72783035385258
 20
43.35655528394785
 30
0.0
  0
SEQEND
  5
77
330
74
100
AcDbEntity
  8
Layer 1
370
    50
  0
POLYLINE
  5
78
330
1F
100
AcDbEntity
  8
Layer 1
 62
     9
420
 12632256
370
    50
100
AcDb2dPolyline
 66
     1
 10
0.0
 20
0.0
 30
0.0
  0
VERTEX
  5
79
330
78
100
AcDbEntity
  8
Layer 1
 62
     9
420
 12632256
370
    50
100
AcDbVertex
100
AcDb2dVertex
 10
210.0441652051662
 20
292.2059571250187
 30
0.0
  0
VERTEX
  5
7A
330
78
100
AcDbEntity
  8
Layer 1
 62
     9
420
 12632256
370
    50
100
AcDbVertex
100
AcDb2dVertex
 10
210.0441652051662
 20
297.1801615228517
 30
0.0
  0
SEQEND
  5
7B
330
78
100
AcDbEntity
  8
Layer 1
370
    50
  0
POLYLINE
  5
7C
330
1F
100
AcDbEntity
  8
Layer 1
 62
     9
420
 12632256
370
    50
100
AcDb2dPolyline
 66
     1
 10
0.0
 20
0.0
 30
0.0
  0
VERTEX
  5
7D
330
7C
100
AcDbEntity
  8
Layer 1
 62
     9
420
 12632256
370
    50
100
AcDbVertex
100
AcDb2dVertex
 10
205.0697885524453
 20
43.35655528394785
 30
0.0
  0
VERTEX
  5
7E
330
7C
100
AcDbEntity
  8
Layer 1
 62
     9
420
 12632256
370
    50
100
AcDbVertex
100
AcDb2dVertex
 10
10.0894855488545
 20
43.35655528394785
 30
0.0
  0
SEQEND
  5
7F
330
7C
100
AcDbEntity
  8
Layer 1
370
    50
  0
POLYLINE
  5
80
330
1F
100
AcDbEntity
  8
Layer 1
 62
     9
420
 12632256
370
    50
100
AcDb2dPolyline
 66
     1
 10
0.0
 20
0.0
 30
0.0
  0
VERTEX
  5
81
330
80
100
AcDbEntity
  8
Layer 1
 62
     9
420
 12632256
370
    50
100
AcDbVertex
100
AcDb2dVertex
 10
10.05417329683539
 20
11.21827182925065
 30
0.0
  0
VERTEX
  5
82
330
80
100
AcDbEntity
  8
Layer 1
 62
     9
420
 12632256
370
    50
100
AcDbVertex
100
AcDb2dVertex
 10
205.0697885524453
 20
11.21827182925065
 30
0.0
  0
SEQEND
  5
83
330
80
100
AcDbEntity
  8
Layer 1
370
    50
  0
POLYLINE
  5
84
330
1F
100
AcDbEntity
  8
Layer 1
 62
     9
420
 12632256
370
    50
100
AcDb2dPolyline
 66
     1
 10
0.0
 20
0.0
 30
0.0
  0
VERTEX
  5
85
330
84
100
AcDbEntity
  8
Layer 1
 62
     9
420
 12632256
370
    50
100
AcDbVertex
100
AcDb2dVertex
 10
10.05417329683539
 20
5.18590565505973
 30
0.0
  0
VERTEX
  5
86
330
84
100
AcDbEntity
  8
Layer 1
 62
     9
420
 12632256
370
    50
100
AcDbVertex
100
AcDb2dVertex
 10
10.05417329683539
 20
292.2059571250187
 30
0.0
  0
SEQEND
  5
87
330
84
100
AcDbEntity
  8
Layer 1
370
    50
  0
POLYLINE
  5
88
330
1F
100
AcDbEntity
  8
Layer 1
 62
     9
420
 12632256
370
    50
100
AcDb2dPolyline
 66
     1
 10
0.0
 20
0.0
 30
0.0
  0
VERTEX
  5
89
330
88
100
AcDbEntity
  8
Layer 1
 62
     9
420
 12632256
370
    50
100
AcDbVertex
100
AcDb2dVertex
 10
205.0697885524453
 20
5.18590565505973
 30
0.0
  0
VERTEX
  5
8A
330
88
100
AcDbEntity
  8
Layer 1
 62
     9
420
 12632256
370
    50
100
AcDbVertex
100
AcDb2dVertex
 10
180.9751193430371
 20
5.18590565505973
 30
0.0
  0
SEQEND
  5
8B
330
88
100
AcDbEntity
  8
Layer 1
370
    50
  0
POLYLINE
  5
8C
330
1F
100
AcDbEntity
  8
Layer 1
 62
     9
420
 12632256
370
    50
100
AcDb2dPolyline
 66
     1
 10
0.0
 20
0.0
 30
0.0
  0
VERTEX
  5
8D
330
8C
100
AcDbEntity
  8
Layer 1
 62
     9
420
 12632256
370
    50
100
AcDbVertex
100
AcDb2dVertex
 10
10.05417329683539
 20
292.2059571250187
 30
0.0
  0
VERTEX
  5
8E
330
8C
100
AcDbEntity
  8
Layer 1
 62
     9
420
 12632256
370
    50
100
AcDbVertex
100
AcDb2dVertex
 10
205.0697885524453
 20
292.2059571250187
 30
0.0
  0
SEQEND
  5
8F
330
8C
100
AcDbEntity
  8
Layer 1
370
    50
  0
POLYLINE
  5
90
330
1F
100
AcDbEntity
  8
Layer 1
 62
     9
420
 12632256
370
    50
100
AcDb2dPolyline
 66
     1
 10
0.0
 20
0.0
 30
0.0
  0
VERTEX
  5
91
330
90
100
AcDbEntity
  8
Layer 1
 62
     9
420
 12632256
370
    50
100
AcDbVertex
100
AcDb2dVertex
 10
205.0697885524453
 20
35.06627203918885
 30
0.0
  0
VERTEX
  5
92
330
90
100
AcDbEntity
  8
Layer 1
 62
     9
420
 12632256
370
    50
100
AcDbVertex
100
AcDb2dVertex
 10
116.9107704555331
 20
35.06627203918885
 30
0.0
  0
SEQEND
  5
93
330
90
100
AcDbEntity
  8
Layer 1
370
    50
  0
POLYLINE
  5
94
330
1F
100
AcDbEntity
  8
Layer 1
 62
     9
420
 12632256
370
    50
100
AcDb2dPolyline
 66
     1
 10
0.0
 20
0.0
 30
0.0
  0
VERTEX
  5
95
330
94
100
AcDbEntity
  8
Layer 1
 62
     9
420
 12632256
370
    50
100
AcDbVertex
100
AcDb2dVertex
 10
210.0441652051662
 20
0.2115290023388477
 30
0.0
  0
VERTEX
  5
96
330
94
100
AcDbEntity
  8
Layer 1
 62
     9
420
 12632256
370
    50
100
AcDbVertex
100
AcDb2dVertex
 10
210.0441652051662
 20
297.1801615228517
 30
0.0
  0
SEQEND
  5
97
330
94
100
AcDbEntity
  8
Layer 1
370
    50
  0
POLYLINE
  5
98
330
1F
100
AcDbEntity
  8
Layer 1
 62
     9
420
 12632256
370
    50
100
AcDb2dPolyline
 66
     1
 10
0.0
 20
0.0
 30
0.0
  0
VERTEX
  5
99
330
98
100
AcDbEntity
  8
Layer 1
 62
     9
420
 12632256
370
    50
100
AcDbVertex
100
AcDb2dVertex
 10
0.0706245040382146
 20
297.1801615228517
 30
0.0
  0
VERTEX
  5
9A
330
98
100
AcDbEntity
  8
Layer 1
 62
     9
420
 12632256
370
    50
100
AcDbVertex
100
AcDb2dVertex
 10
210.0441652051662
 20
297.1801615228517
 30
0.0
  0
SEQEND
  5
9B
330
98
100
AcDbEntity
  8
Layer 1
370
    50
  0
POLYLINE
  5
9C
330
1F
100
AcDbEntity
  8
Layer 1
 62
     9
420
 12632256
370
    50
100
AcDb2dPolyline
 66
     1
 10
0.0
 20
0.0
 30
0.0
  0
VERTEX
  5
9D
330
9C
100
AcDbEntity
  8
Layer 1
 62
     9
420
 12632256
370
    50
100
AcDbVertex
100
AcDb2dVertex
 10
0.0706245040382146
 20
0.2115290023388477
 30
0.0
  0
VERTEX
  5
9E
330
9C
100
AcDbEntity
  8
Layer 1
 62
     9
420
 12632256
370
    50
100
AcDbVertex
100
AcDb2dVertex
 10
0.0706245040382146
 20
297.1801615228517
 30
0.0
  0
SEQEND
  5
9F
330
9C
100
AcDbEntity
  8
Layer 1
370
    50
  0
POLYLINE
  5
A0
330
1F
100
AcDbEntity
  8
Layer 1
 62
     9
420
 12632256
370
    50
100
AcDb2dPolyline
 66
     1
 10
0.0
 20
0.0
 30
0.0
  0
VERTEX
  5
A1
330
A0
100
AcDbEntity
  8
Layer 1
 62
     9
420
 12632256
370
    50
100
AcDbVertex
100
AcDb2dVertex
 10
0.0706245040382146
 20
0.2115290023388477
 30
0.0
  0
VERTEX
  5
A2
330
A0
100
AcDbEntity
  8
Layer 1
 62
     9
420
 12632256
370
    50
100
AcDbVertex
100
AcDb2dVertex
 10
210.0441652051662
 20
0.2115290023388477
 30
0.0
  0
SEQEND
  5
A3
330
A0
100
AcDbEntity
  8
Layer 1
370
    50
  0
POLYLINE
  5
A4
330
1F
100
AcDbEntity
  8
Layer 1
 62
     9
420
 12632256
370
    50
100
AcDb2dPolyline
 66
     1
 10
0.0
 20
0.0
 30
0.0
  0
VERTEX
  5
A5
330
A4
100
AcDbEntity
  8
Layer 1
 62
     9
420
 12632256
370
    50
100
AcDbVertex
100
AcDb2dVertex
 10
10.05417329683539
 20
5.18590565505973
 30
0.0
  0
VERTEX
  5
A6
330
A4
100
AcDbEntity
  8
Layer 1
 62
     9
420
 12632256
370
    50
100
AcDbVertex
100
AcDb2dVertex
 10
205.0697885524453
 20
5.18590565505973
 30
0.0
  0
SEQEND
  5
A7
330
A4
100
AcDbEntity
  8
Layer 1
370
    50
  0
INSERT
  5
A9
330
1F
100
AcDbEntity
  8
Layer 1
100
AcDbBlockReference
  2
block 3
 10
0.0
 20
0.0
 30
0.0
  0
INSERT
  5
AF
330
1F
100
AcDbEntity
  8
Layer 1
100
AcDbBlockReference
  2
block 4
 10
0.0
 20
0.0
 30
0.0
  0
ENDSEC
  0
SECTION
  2
OBJECTS
  0
DICTIONARY
  5
C
330
0
100
AcDbDictionary
281
     1
  3
ACAD_GROUP
350
D
  3
ACAD_IMAGE_DICT
350
40
  3
ACAD_IMAGE_VARS
350
42
  3
ACAD_LAYOUT
350
1A
  3
ACAD_MLINESTYLE
350
17
  3
ACAD_PLOTSETTINGS
350
19
  3
ACAD_PLOTSTYLENAME
350
E
  3
ACAD_TABLESTYLE
350
2A8
  3
ACAD_VISUALSTYLE
350
2A
  0
IMAGEDEF_REACTOR
  5
44
330
43
100
AcDbRasterImageDefReactor
 90
        2
330
43
  0
DICTIONARY
  5
D
102
{ACAD_REACTORS
330
C
102
}
330
C
100
AcDbDictionary
281
     1
  0
DICTIONARY
  5
40
102
{ACAD_REACTORS
330
C
102
}
330
C
100
AcDbDictionary
281
     1
  3
D:\dwv\New files\PDF\104.65.45 plain junction_1.png
350
41
  0
RASTERVARIABLES
  5
42
102
{ACAD_REACTORS
330
C
102
}
330
C
100
AcDbRasterVariables
 90
        0
 70
     0
 71
     1
 72
     0
  0
DICTIONARY
  5
1A
102
{ACAD_REACTORS
330
C
102
}
330
C
100
AcDbDictionary
281
     1
  3
Layout1
350
1E
  3
Layout2
350
26
  3
Model
350
22
  0
DICTIONARY
  5
17
102
{ACAD_REACTORS
330
C
102
}
330
C
100
AcDbDictionary
281
     1
  3
Standard
350
18
  0
DICTIONARY
  5
19
102
{ACAD_REACTORS
330
C
102
}
330
C
100
AcDbDictionary
281
     1
  0
ACDBDICTIONARYWDFLT
  5
E
102
{ACAD_REACTORS
330
C
102
}
330
C
100
AcDbDictionary
281
     1
  3
Normal
350
F
100
AcDbDictionaryWithDefault
340
F
  0
DICTIONARY
  5
2A8
102
{ACAD_REACTORS
330
C
102
}
330
C
100
AcDbDictionary
281
     1
  0
DICTIONARY
  5
2A
102
{ACAD_REACTORS
330
C
102
}
330
C
100
AcDbDictionary
281
     1
  3
2dWireframe
350
2F
  3
3D Hidden
350
31
  3
3dWireframe
350
30
  3
Basic
350
32
  3
Brighten
350
36
  3
ColorChange
350
3A
  3
Conceptual
350
34
  3
Dim
350
35
  3
Facepattern
350
39
  3
Flat
350
2B
  3
FlatWithEdges
350
2C
  3
Gouraud
350
2D
  3
GouraudWithEdges
350
2E
  3
Linepattern
350
38
  3
Realistic
350
33
  3
Thicken
350
37
  0
IMAGEDEF
  5
41
102
{ACAD_REACTORS
330
40
330
44
102
}
330
40
100
AcDbRasterImageDef
 90
        0
  1
D:\dwv\New files\PDF\104.65.45 plain junction_1.png
 10
251.0
 20
40.0
 11
0.3527777777777777
 21
0.3527777777777777
280
     1
281
     5
  0
LAYOUT
  5
1E
102
{ACAD_REACTORS
330
1A
102
}
330
1A
100
AcDbPlotSettings
  1

  2
none_device
  4

  6

 40
0.0
 41
0.0
 42
0.0
 43
0.0
 44
0.0
 45
0.0
 46
0.0
 47
0.0
 48
0.0
 49
0.0
140
0.0
141
0.0
142
1.0
143
1.0
 70
   688
 72
     0
 73
     0
 74
     5
  7

 75
    16
 76
     0
 77
     2
 78
   300
147
1.0
148
0.0
149
0.0
100
AcDbLayout
  1
Layout1
 70
     1
 71
     1
 10
0.0
 20
0.0
 11
12.0
 21
9.0
 12
0.0
 22
0.0
 32
0.0
 14
1.000000000000000E+20
 24
1.000000000000000E+20
 34
1.000000000000000E+20
 15
-1.000000000000000E+20
 25
-1.000000000000000E+20
 35
-1.000000000000000E+20
146
0.0
 13
0.0
 23
0.0
 33
0.0
 16
1.0
 26
0.0
 36
0.0
 17
0.0
 27
1.0
 37
0.0
 76
     0
330
1B
  0
LAYOUT
  5
26
102
{ACAD_REACTORS
330
1A
102
}
330
1A
100
AcDbPlotSettings
  1

  2
none_device
  4

  6

 40
0.0
 41
0.0
 42
0.0
 43
0.0
 44
0.0
 45
0.0
 46
0.0
 47
0.0
 48
0.0
 49
0.0
140
0.0
141
0.0
142
1.0
143
1.0
 70
   688
 72
     0
 73
     0
 74
     5
  7

 75
    16
 76
     0
 77
     2
 78
   300
147
1.0
148
0.0
149
0.0
100
AcDbLayout
  1
Layout2
 70
     1
 71
     2
 10
0.0
 20
0.0
 11
0.0
 21
0.0
 12
0.0
 22
0.0
 32
0.0
 14
0.0
 24
0.0
 34
0.0
 15
0.0
 25
0.0
 35
0.0
146
0.0
 13
0.0
 23
0.0
 33
0.0
 16
1.0
 26
0.0
 36
0.0
 17
0.0
 27
1.0
 37
0.0
 76
     0
330
23
  0
LAYOUT
  5
22
102
{ACAD_REACTORS
330
1A
102
}
330
1A
100
AcDbPlotSettings
  1

  2
none_device
  4

  6

 40
0.0
 41
0.0
 42
0.0
 43
0.0
 44
0.0
 45
0.0
 46
0.0
 47
0.0
 48
0.0
 49
0.0
140
0.0
141
0.0
142
1.0
143
1.0
 70
  1712
 72
     0
 73
     0
 74
     0
  7

 75
     0
 76
     0
 77
     2
 78
   300
147
1.0
148
0.0
149
0.0
100
AcDbLayout
  1
Model
 70
     1
 71
     0
 10
0.0
 20
0.0
 11
12.0
 21
9.0
 12
0.0
 22
0.0
 32
0.0
 14
1.000000000000000E+20
 24
1.000000000000000E+20
 34
1.000000000000000E+20
 15
-1.000000000000000E+20
 25
-1.000000000000000E+20
 35
-1.000000000000000E+20
146
0.0
 13
0.0
 23
0.0
 33
0.0
 16
1.0
 26
0.0
 36
0.0
 17
0.0
 27
1.0
 37
0.0
 76
     0
330
1F
331
29
  0
MLINESTYLE
  5
18
102
{ACAD_REACTORS
330
17
102
}
330
17
100
AcDbMlineStyle
  2
Standard
 70
     0
  3

 62
   256
 51
90.0
 52
90.0
 71
     2
 49
0.5
 62
   256
  6
BYLAYER
 49
-0.5
 62
   256
  6
BYLAYER
  0
ACDBPLACEHOLDER
  5
F
102
{ACAD_REACTORS
330
E
102
}
330
E
  0
VISUALSTYLE
  5
2F
102
{ACAD_REACTORS
330
2A
102
}
330
2A
100
AcDbVisualStyle
  2
2dWireframe
 70
     4
 71
     0
 72
     2
 73
     0
 90
        0
 40
-0.6
 41
-30.0
 62
     5
 63
     7
421
 16777215
 74
     1
 91
        4
 64
     7
 65
   257
 75
     1
175
     1
 42
1.0
 92
        0
 66
   257
 43
1.0
 76
     1
 77
     6
 78
     2
 67
     7
 79
     5
170
     0
171
     0
290
     0
174
     0
 93
        1
 44
0.0
173
     0
291
     0
 45
0.0
1001
ACAD
1000
AcDbSavedByObjectVersion
1070
     0
  0
VISUALSTYLE
  5
31
102
{ACAD_REACTORS
330
2A
102
}
330
2A
100
AcDbVisualStyle
  2
3D Hidden
 70
     6
 71
     1
 72
     2
 73
     2
 90
        0
 40
-0.6
 41
-30.0
 62
     5
 63
     7
421
 16777215
 74
     2
 91
        2
 64
     7
 65
   257
 75
     2
175
     1
 42
40.0
 92
        0
 66
   257
 43
1.0
 76
     1
 77
     6
 78
     2
 67
     7
 79
     3
170
     0
171
     0
290
     0
174
     0
 93
        1
 44
0.0
173
     0
291
     0
 45
0.0
1001
ACAD
1000
AcDbSavedByObjectVersion
1070
     0
  0
VISUALSTYLE
  5
30
102
{ACAD_REACTORS
330
2A
102
}
330
2A
100
AcDbVisualStyle
  2
3dWireframe
 70
     5
 71
     0
 72
     2
 73
     0
 90
        0
 40
-0.6
 41
-30.0
 62
     5
 63
     7
421
 16777215
 74
     1
 91
        4
 64
     7
 65
   257
 75
     1
175
     1
 42
1.0
 92
        0
 66
   257
 43
1.0
 76
     1
 77
     6
 78
     2
 67
     7
 79
     5
170
     0
171
     0
290
     0
174
     0
 93
        1
 44
0.0
173
     0
291
     0
 45
0.0
1001
ACAD
1000
AcDbSavedByObjectVersion
1070
     0
  0
VISUALSTYLE
  5
32
102
{ACAD_REACTORS
330
2A
102
}
330
2A
100
AcDbVisualStyle
  2
Basic
 70
     7
 71
     1
 72
     0
 73
     1
 90
        0
 40
-0.6
 41
-30.0
 62
     5
 63
     7
421
 16777215
 74
     0
 91
        4
 64
     7
 65
   257
 75
     1
175
     1
 42
1.0
 92
        8
 66
     7
 43
1.0
 76
     1
 77
     6
 78
     2
 67
     7
 79
     5
170
     0
171
     0
290
     0
174
     0
 93
        1
 44
0.0
173
     0
291
     1
 45
0.0
1001
ACAD
1000
AcDbSavedByObjectVersion
1070
     0
  0
VISUALSTYLE
  5
36
102
{ACAD_REACTORS
330
2A
102
}
330
2A
100
AcDbVisualStyle
  2
Brighten
 70
    12
 71
     2
 72
     2
 73
     0
 90
        0
 40
-0.6
 41
-30.0
 62
     5
 63
     7
421
 16777215
 74
     1
 91
        4
 64
     7
 65
   257
 75
     1
175
     1
 42
1.0
 92
        8
 66
     7
 43
1.0
 76
     1
 77
     6
 78
     2
 67
     7
 79
     5
170
     0
171
     0
290
     0
174
     0
 93
        1
 44
50.0
173
     0
291
     1
 45
0.0
1001
ACAD
1000
AcDbSavedByObjectVersion
1070
     0
  0
VISUALSTYLE
  5
3A
102
{ACAD_REACTORS
330
2A
102
}
330
2A
100
AcDbVisualStyle
  2
ColorChange
 70
    16
 71
     2
 72
     2
 73
     3
 90
        0
 40
-0.6
 41
-30.0
 62
     5
 63
     8
421
  8421504
 74
     1
 91
        4
 64
     7
 65
   257
 75
     1
175
     1
 42
1.0
 92
        8
 66
     8
424
  8421504
 43
1.0
 76
     1
 77
     6
 78
     2
 67
     7
 79
     5
170
     0
171
     0
290
     0
174
     0
 93
        1
 44
0.0
173
     0
291
     1
 45
0.0
1001
ACAD
1000
AcDbSavedByObjectVersion
1070
     0
  0
VISUALSTYLE
  5
34
102
{ACAD_REACTORS
330
2A
102
}
330
2A
100
AcDbVisualStyle
  2
Conceptual
 70
     9
 71
     3
 72
     2
 73
     0
 90
        0
 40
-0.6
 41
-30.0
 62
     5
 63
     7
421
 16777215
 74
     2
 91
        2
 64
     7
 65
   257
 75
     1
175
     1
 42
40.0
 92
        8
 66
     7
 43
1.0
 76
     1
 77
     6
 78
     2
 67
     7
 79
     3
170
     0
171
     0
290
     0
174
     0
 93
        1
 44
0.0
173
     0
291
     0
 45
0.0
1001
ACAD
1000
AcDbSavedByObjectVersion
1070
     0
  0
VISUALSTYLE
  5
35
102
{ACAD_REACTORS
330
2A
102
}
330
2A
100
AcDbVisualStyle
  2
Dim
 70
    11
 71
     2
 72
     2
 73
     0
 90
        0
 40
-0.6
 41
-30.0
 62
     5
 63
     7
421
 16777215
 74
     1
 91
        4
 64
     7
 65
   257
 75
     1
175
     1
 42
1.0
 92
        8
 66
     7
 43
1.0
 76
     1
 77
     6
 78
     2
 67
     7
 79
     5
170
     0
171
     0
290
     0
174
     0
 93
        1
 44
-50.0
173
     0
291
     1
 45
0.0
1001
ACAD
1000
AcDbSavedByObjectVersion
1070
     0
  0
VISUALSTYLE
  5
39
102
{ACAD_REACTORS
330
2A
102
}
330
2A
100
AcDbVisualStyle
  2
Facepattern
 70
    15
 71
     2
 72
     2
 73
     0
 90
        0
 40
-0.6
 41
-30.0
 62
     5
 63
     7
421
 16777215
 74
     1
 91
        4
 64
     7
 65
   257
 75
     1
175
     1
 42
1.0
 92
        8
 66
     7
 43
1.0
 76
     1
 77
     6
 78
     2
 67
     7
 79
     5
170
     0
171
     0
290
     0
174
     0
 93
        1
 44
0.0
173
     0
291
     1
 45
0.0
1001
ACAD
1000
AcDbSavedByObjectVersion
1070
     0
  0
VISUALSTYLE
  5
2B
102
{ACAD_REACTORS
330
2A
102
}
330
2A
100
AcDbVisualStyle
  2
Flat
 70
     0
 71
     2
 72
     1
 73
     1
 90
        2
 40
-0.6
 41
30.0
 62
     5
 63
     7
421
 16777215
 74
     0
 91
        4
 64
     7
 65
   257
 75
     1
175
     1
 42
1.0
 92
        8
 66
     7
 43
1.0
 76
     1
 77
     6
 78
     2
 67
     7
 79
     5
170
     0
171
     0
290
     0
174
     0
 93
       13
 44
0.0
173
     0
291
     1
 45
0.0
1001
ACAD
1000
AcDbSavedByObjectVersion
1070
     0
  0
VISUALSTYLE
  5
2C
102
{ACAD_REACTORS
330
2A
102
}
330
2A
100
AcDbVisualStyle
  2
FlatWithEdges
 70
     1
 71
     2
 72
     1
 73
     1
 90
        2
 40
-0.6
 41
30.0
 62
     5
 63
     7
421
 16777215
 74
     1
 91
        4
 64
     7
 65
   257
 75
     1
175
     1
 42
1.0
 92
        0
 66
   257
 43
1.0
 76
     1
 77
     6
 78
     2
 67
     7
 79
     5
170
     0
171
     0
290
     0
174
     0
 93
       13
 44
0.0
173
     0
291
     1
 45
0.0
1001
ACAD
1000
AcDbSavedByObjectVersion
1070
     0
  0
VISUALSTYLE
  5
2D
102
{ACAD_REACTORS
330
2A
102
}
330
2A
100
AcDbVisualStyle
  2
Gouraud
 70
     2
 71
     2
 72
     2
 73
     1
 90
        2
 40
-0.6
 41
30.0
 62
     5
 63
     7
421
 16777215
 74
     0
 91
        4
 64
     7
 65
   257
 75
     1
175
     1
 42
1.0
 92
        0
 66
     7
 43
1.0
 76
     1
 77
     6
 78
     2
 67
     7
 79
     5
170
     0
171
     0
290
     0
174
     0
 93
       13
 44
0.0
173
     0
291
     1
 45
0.0
1001
ACAD
1000
AcDbSavedByObjectVersion
1070
     0
  0
VISUALSTYLE
  5
2E
102
{ACAD_REACTORS
330
2A
102
}
330
2A
100
AcDbVisualStyle
  2
GouraudWithEdges
 70
     3
 71
     2
 72
     2
 73
     1
 90
        2
 40
-0.6
 41
30.0
 62
     5
 63
     7
421
 16777215
 74
     1
 91
        4
 64
     7
 65
   257
 75
     1
175
     1
 42
1.0
 92
        0
 66
   257
 43
1.0
 76
     1
 77
     6
 78
     2
 67
     7
 79
     5
170
     0
171
     0
290
     0
174
     0
 93
       13
 44
0.0
173
     0
291
     1
 45
0.0
1001
ACAD
1000
AcDbSavedByObjectVersion
1070
     0
  0
VISUALSTYLE
  5
38
102
{ACAD_REACTORS
330
2A
102
}
330
2A
100
AcDbVisualStyle
  2
Linepattern
 70
    14
 71
     2
 72
     2
 73
     0
 90
        0
 40
-0.6
 41
-30.0
 62
     5
 63
     7
421
 16777215
 74
     1
 91
        4
 64
     7
 65
   257
 75
     7
175
     7
 42
1.0
 92
        8
 66
     7
 43
1.0
 76
     1
 77
     6
 78
     2
 67
     7
 79
     5
170
     0
171
     0
290
     0
174
     0
 93
        1
 44
0.0
173
     0
291
     1
 45
0.0
1001
ACAD
1000
AcDbSavedByObjectVersion
1070
     0
  0
VISUALSTYLE
  5
33
102
{ACAD_REACTORS
330
2A
102
}
330
2A
100
AcDbVisualStyle
  2
Realistic
 70
     8
 71
     2
 72
     2
 73
     0
 90
        0
 40
-0.6
 41
-30.0
 62
     5
 63
     7
421
 16777215
 74
     1
 91
        0
 64
     7
 65
   257
 75
     1
175
     1
 42
1.0
 92
        8
 66
     8
424
  7895160
 43
1.0
 76
     1
 77
     6
 78
     2
 67
     7
 79
     5
170
     0
171
     0
290
     0
174
     0
 93
       13
 44
0.0
173
     0
291
     0
 45
0.0
1001
ACAD
1000
AcDbSavedByObjectVersion
1070
     0
  0
VISUALSTYLE
  5
37
102
{ACAD_REACTORS
330
2A
102
}
330
2A
100
AcDbVisualStyle
  2
Thicken
 70
    13
 71
     2
 72
     2
 73
     0
 90
        0
 40
-0.6
 41
-30.0
 62
     5
 63
     7
421
 16777215
 74
     1
 91
        4
 64
     7
 65
   257
 75
     1
175
     1
 42
1.0
 92
       12
 66
     7
 43
1.0
 76
     1
 77
     6
 78
     2
 67
     7
 79
     5
170
     0
171
     0
290
     0
174
     0
 93
        1
 44
0.0
173
     0
291
     1
 45
0.0
1001
ACAD
1000
AcDbSavedByObjectVersion
1070
     0
  0
ENDSEC
  0
EOF
