  0
SECTION
  2
HEADER
  9
$ACADVER
  1
AC1018
  9
$ACADMAINTVER
 70
     0
  9
$DWGCODEPAGE
  3
ANSI_1252
  9
$INSBASE
 10
0.0
 20
0.0
 30
0.0
  9
$EXTMIN
 10
1.000000000000000E+20
 20
1.000000000000000E+20
 30
1.000000000000000E+20
  9
$EXTMAX
 10
-1.000000000000000E+20
 20
-1.000000000000000E+20
 30
-1.000000000000000E+20
  9
$LIMMIN
 10
0.0
 20
0.0
  9
$LIMMAX
 10
12.0
 20
9.0
  9
$ORTHOMODE
 70
     0
  9
$REGENMODE
 70
     1
  9
$FILLMODE
 70
     1
  9
$QTEXTMODE
 70
     0
  9
$MIRRTEXT
 70
     1
  9
$LTSCALE
 40
1.0
  9
$ATTMODE
 70
     1
  9
$TEXTSIZE
 40
0.2
  9
$TRACEWID
 40
0.05
  9
$TEXTSTYLE
  7
Standard
  9
$CLAYER
  8
0
  9
$CELTYPE
  6
ByLayer
  9
$CECOLOR
 62
   256
  9
$CELTSCALE
 40
1.0
  9
$DISPSILH
 70
     0
  9
$DIMSCALE
 40
1.0
  9
$DIMASZ
 40
0.18
  9
$DIMEXO
 40
0.0625
  9
$DIMDLI
 40
0.38
  9
$DIMRND
 40
0.0
  9
$DIMDLE
 40
0.0
  9
$DIMEXE
 40
0.18
  9
$DIMTP
 40
0.0
  9
$DIMTM
 40
0.0
  9
$DIMTXT
 40
0.18
  9
$DIMCEN
 40
0.09
  9
$DIMTSZ
 40
0.0
  9
$DIMTOL
 70
     0
  9
$DIMLIM
 70
     0
  9
$DIMTIH
 70
     1
  9
$DIMTOH
 70
     1
  9
$DIMSE1
 70
     0
  9
$DIMSE2
 70
     0
  9
$DIMTAD
 70
     0
  9
$DIMZIN
 70
     0
  9
$DIMBLK
  1

  9
$DIMASO
 70
     1
  9
$DIMSHO
 70
     1
  9
$DIMPOST
  1

  9
$DIMAPOST
  1

  9
$DIMALT
 70
     0
  9
$DIMALTD
 70
     2
  9
$DIMALTF
 40
25.4
  9
$DIMLFAC
 40
1.0
  9
$DIMTOFL
 70
     0
  9
$DIMTVP
 40
0.0
  9
$DIMTIX
 70
     0
  9
$DIMSOXD
 70
     0
  9
$DIMSAH
 70
     0
  9
$DIMBLK1
  1

  9
$DIMBLK2
  1

  9
$DIMSTYLE
  2
Standard
  9
$DIMCLRD
 70
     0
  9
$DIMCLRE
 70
     0
  9
$DIMCLRT
 70
     0
  9
$DIMTFAC
 40
1.0
  9
$DIMGAP
 40
0.09
  9
$DIMJUST
 70
     0
  9
$DIMSD1
 70
     0
  9
$DIMSD2
 70
     0
  9
$DIMTOLJ
 70
     1
  9
$DIMTZIN
 70
     0
  9
$DIMALTZ
 70
     0
  9
$DIMALTTZ
 70
     0
  9
$DIMUPT
 70
     0
  9
$DIMDEC
 70
     4
  9
$DIMTDEC
 70
     4
  9
$DIMALTU
 70
     2
  9
$DIMALTTD
 70
     2
  9
$DIMTXSTY
  7
Standard
  9
$DIMAUNIT
 70
     0
  9
$DIMADEC
 70
     0
  9
$DIMALTRND
 40
0.0
  9
$DIMAZIN
 70
     0
  9
$DIMDSEP
 70
    46
  9
$DIMATFIT
 70
     3
  9
$DIMFRAC
 70
     0
  9
$DIMLDRBLK
  1

  9
$DIMLUNIT
 70
     2
  9
$DIMLWD
 70
    -2
  9
$DIMLWE
 70
    -2
  9
$DIMTMOVE
 70
     0
  9
$LUNITS
 70
     2
  9
$LUPREC
 70
     4
  9
$SKETCHINC
 40
0.1
  9
$FILLETRAD
 40
0.5
  9
$AUNITS
 70
     0
  9
$AUPREC
 70
     0
  9
$MENU
  1
.
  9
$ELEVATION
 40
0.0
  9
$PELEVATION
 40
0.0
  9
$THICKNESS
 40
0.0
  9
$LIMCHECK
 70
     0
  9
$CHAMFERA
 40
0.5
  9
$CHAMFERB
 40
0.5
  9
$CHAMFERC
 40
1.0
  9
$CHAMFERD
 40
0.0
  9
$SKPOLY
 70
     0
  9
$TDCREATE
 40
2456576.537491898
  9
$TDUCREATE
 40
2456575.995825232
  9
$TDUPDATE
 40
2456576.53749191
  9
$TDUUPDATE
 40
2456575.995825243
  9
$TDINDWG
 40
0.0000000116
  9
$TDUSRTIMER
 40
0.0000000116
  9
$USRTIMER
 70
     1
  9
$ANGBASE
 50
0.0
  9
$ANGDIR
 70
     0
  9
$PDMODE
 70
     0
  9
$PDSIZE
 40
0.0
  9
$PLINEWID
 40
0.0
  9
$SPLFRAME
 70
     0
  9
$SPLINETYPE
 70
     6
  9
$SPLINESEGS
 70
     8
  9
$HANDSEED
  5
3AF
  9
$SURFTAB1
 70
     6
  9
$SURFTAB2
 70
     6
  9
$SURFTYPE
 70
     6
  9
$SURFU
 70
     6
  9
$SURFV
 70
     6
  9
$UCSBASE
  2

  9
$UCSNAME
  2

  9
$UCSORG
 10
0.0
 20
0.0
 30
0.0
  9
$UCSXDIR
 10
1.0
 20
0.0
 30
0.0
  9
$UCSYDIR
 10
0.0
 20
1.0
 30
0.0
  9
$UCSORTHOREF
  2

  9
$UCSORTHOVIEW
 70
     0
  9
$UCSORGTOP
 10
0.0
 20
0.0
 30
0.0
  9
$UCSORGBOTTOM
 10
0.0
 20
0.0
 30
0.0
  9
$UCSORGLEFT
 10
0.0
 20
0.0
 30
0.0
  9
$UCSORGRIGHT
 10
0.0
 20
0.0
 30
0.0
  9
$UCSORGFRONT
 10
0.0
 20
0.0
 30
0.0
  9
$UCSORGBACK
 10
0.0
 20
0.0
 30
0.0
  9
$PUCSBASE
  2

  9
$PUCSNAME
  2

  9
$PUCSORG
 10
0.0
 20
0.0
 30
0.0
  9
$PUCSXDIR
 10
1.0
 20
0.0
 30
0.0
  9
$PUCSYDIR
 10
0.0
 20
1.0
 30
0.0
  9
$PUCSORTHOREF
  2

  9
$PUCSORTHOVIEW
 70
     0
  9
$PUCSORGTOP
 10
0.0
 20
0.0
 30
0.0
  9
$PUCSORGBOTTOM
 10
0.0
 20
0.0
 30
0.0
  9
$PUCSORGLEFT
 10
0.0
 20
0.0
 30
0.0
  9
$PUCSORGRIGHT
 10
0.0
 20
0.0
 30
0.0
  9
$PUCSORGFRONT
 10
0.0
 20
0.0
 30
0.0
  9
$PUCSORGBACK
 10
0.0
 20
0.0
 30
0.0
  9
$USERI1
 70
     0
  9
$USERI2
 70
     0
  9
$USERI3
 70
     0
  9
$USERI4
 70
     0
  9
$USERI5
 70
     0
  9
$USERR1
 40
0.0
  9
$USERR2
 40
0.0
  9
$USERR3
 40
0.0
  9
$USERR4
 40
0.0
  9
$USERR5
 40
0.0
  9
$WORLDVIEW
 70
     1
  9
$SHADEDGE
 70
     3
  9
$SHADEDIF
 70
    70
  9
$TILEMODE
 70
     1
  9
$MAXACTVP
 70
    64
  9
$PINSBASE
 10
0.0
 20
0.0
 30
0.0
  9
$PLIMCHECK
 70
     0
  9
$PEXTMIN
 10
1.000000000000000E+20
 20
1.000000000000000E+20
 30
1.000000000000000E+20
  9
$PEXTMAX
 10
-1.000000000000000E+20
 20
-1.000000000000000E+20
 30
-1.000000000000000E+20
  9
$PLIMMIN
 10
0.0
 20
0.0
  9
$PLIMMAX
 10
12.0
 20
9.0
  9
$UNITMODE
 70
     0
  9
$VISRETAIN
 70
     1
  9
$PLINEGEN
 70
     0
  9
$PSLTSCALE
 70
     1
  9
$TREEDEPTH
 70
  3020
  9
$CMLSTYLE
  2
Standard
  9
$CMLJUST
 70
     0
  9
$CMLSCALE
 40
1.0
  9
$PROXYGRAPHICS
 70
     1
  9
$MEASUREMENT
 70
     0
  9
$CELWEIGHT
370
    -1
  9
$ENDCAPS
280
     0
  9
$JOINSTYLE
280
     0
  9
$LWDISPLAY
290
     1
  9
$INSUNITS
 70
     1
  9
$HYPERLINKBASE
  1

  9
$STYLESHEET
  1

  9
$XEDIT
290
     1
  9
$CEPSNTYPE
380
     0
  9
$PSTYLEMODE
290
     1
  9
$FINGERPRINTGUID
  2
{E6B65B53-4F20-451C-A61B-38A812A425D5}
  9
$VERSIONGUID
  2
{FAEB1C32-E019-11D5-929B-00C0DF256EC4}
  9
$EXTNAMES
290
     1
  9
$PSVPSCALE
 40
0.0
  9
$OLESTARTUP
290
     0
  9
$SORTENTS
280
   127
  9
$INDEXCTL
280
     0
  9
$HIDETEXT
280
     1
  9
$XCLIPFRAME
290
     0
  9
$HALOGAP
280
     0
  9
$OBSCOLOR
 70
   257
  9
$OBSLTYPE
280
     0
  9
$INTERSECTIONDISPLAY
280
     0
  9
$INTERSECTIONCOLOR
 70
   257
  9
$DIMASSOC
280
     2
  9
$PROJECTNAME
  1

  0
ENDSEC
  0
SECTION
  2
CLASSES
  0
CLASS
  1
ACDBDICTIONARYWDFLT
  2
AcDbDictionaryWithDefault
  3
ObjectDBX Classes
 90
        0
 91
        3
280
     0
281
     0
  0
CLASS
  1
VISUALSTYLE
  2
AcDbVisualStyle
  3
ObjectDBX Classes
 90
     4095
 91
        3
280
     0
281
     0
  0
CLASS
  1
IMAGEDEF
  2
AcDbRasterImageDef
  3
ISM
 90
        0
 91
        3
280
     0
281
     0
  0
CLASS
  1
RASTERVARIABLES
  2
AcDbRasterVariables
  3
ISM
 90
        0
 91
        3
280
     0
281
     0
  0
CLASS
  1
IMAGE
  2
AcDbRasterImage
  3
ISM
 90
      127
 91
        4
280
     0
281
     1
  0
CLASS
  1
IMAGEDEF_REACTOR
  2
AcDbRasterImageDefReactor
  3
ISM
 90
        1
 91
        3
280
     0
281
     0
  0
ENDSEC
  0
SECTION
  2
TABLES
  0
TABLE
  2
VPORT
  5
8
330
0
100
AcDbSymbolTable
 70
     1
  0
VPORT
  5
29
330
8
100
AcDbSymbolTableRecord
100
AcDbViewportTableRecord
  2
*Active
 70
     0
 10
0.0
 20
0.0
 11
1.0
 21
1.0
 12
0.0
 22
0.0
 13
0.0
 23
0.0
 14
0.5
 24
0.5
 15
0.5
 25
0.5
 16
0.0
 26
0.0
 36
1.0
 17
105.0008952513716
 27
-148.5000775824991
 37
0.0
 40
297.0001551649982
 41
0.7070763662937379
 42
50.0
 43
0.0
 44
0.0
 50
0.0
 51
0.0
 71
     0
 72
   100
 73
     1
 74
     3
 75
     0
 76
     0
 77
     0
 78
     0
281
     0
 65
     1
110
0.0
120
0.0
130
0.0
111
1.0
121
0.0
131
0.0
112
0.0
122
1.0
132
0.0
 79
     0
146
0.0
  0
ENDTAB
  0
TABLE
  2
LTYPE
  5
5
330
0
100
AcDbSymbolTable
 70
     3
  0
LTYPE
  5
14
330
5
100
AcDbSymbolTableRecord
100
AcDbLinetypeTableRecord
  2
ByBlock
 70
     0
  3

 72
    65
 73
     0
 40
0.0
  0
LTYPE
  5
15
330
5
100
AcDbSymbolTableRecord
100
AcDbLinetypeTableRecord
  2
ByLayer
 70
     0
  3

 72
    65
 73
     0
 40
0.0
  0
LTYPE
  5
16
330
5
100
AcDbSymbolTableRecord
100
AcDbLinetypeTableRecord
  2
Continuous
 70
     0
  3
Solid line
 72
    65
 73
     0
 40
0.0
  0
LTYPE
  5
386
330
5
100
AcDbSymbolTableRecord
100
AcDbLinetypeTableRecord
  2
AI-Linetype-1
 70
     0
  3
Adobe Illustrator Linetype No. 1
 72
    65
 73
     4
 40
9.575806333552654
 49
1.59596777833133
 74
     0
 49
-1.59596777833133
 74
     0
 49
4.787902998558663
 74
     0
 49
-1.59596777833133
 74
     0
  0
LTYPE
  5
38B
330
5
100
AcDbSymbolTableRecord
100
AcDbLinetypeTableRecord
  2
AI-Linetype-2
 70
     0
  3
Adobe Illustrator Linetype No. 2
 72
    65
 73
     4
 40
9.575806333552654
 49
1.59596777833133
 74
     0
 49
-1.59596777833133
 74
     0
 49
4.787902998558663
 74
     0
 49
-1.59596777833133
 74
     0
  0
ENDTAB
  0
TABLE
  2
LAYER
  5
2
330
0
100
AcDbSymbolTable
 70
     2
  0
LAYER
  5
10
330
2
100
AcDbSymbolTableRecord
100
AcDbLayerTableRecord
  2
0
 70
     0
 62
     7
  6
Continuous
370
    -3
390
F
  0
LAYER
  5
3B
330
2
100
AcDbSymbolTableRecord
100
AcDbLayerTableRecord
  2
Layer 1
 70
     0
 62
     7
  6
Continuous
370
    -3
390
F
  0
ENDTAB
  0
TABLE
  2
STYLE
  5
3
330
0
100
AcDbSymbolTable
 70
     1
  0
STYLE
  5
11
330
3
100
AcDbSymbolTableRecord
100
AcDbTextStyleTableRecord
  2
Standard
 70
     0
 40
0.0
 41
1.0
 50
0.0
 71
     0
 42
0.2
  3
txt
  4

  0
ENDTAB
  0
TABLE
  2
VIEW
  5
6
330
0
100
AcDbSymbolTable
 70
     0
  0
ENDTAB
  0
TABLE
  2
UCS
  5
7
330
0
100
AcDbSymbolTable
 70
     0
  0
ENDTAB
  0
TABLE
  2
APPID
  5
9
330
0
100
AcDbSymbolTable
 70
     1
  0
APPID
  5
12
330
9
100
AcDbSymbolTableRecord
100
AcDbRegAppTableRecord
  2
ACAD
 70
     0
  0
ENDTAB
  0
TABLE
  2
DIMSTYLE
  5
A
330
0
100
AcDbSymbolTable
 70
     1
100
AcDbDimStyleTable
  0
DIMSTYLE
105
27
330
A
100
AcDbSymbolTableRecord
100
AcDbDimStyleTableRecord
  2
Standard
 70
     0
340
11
  0
ENDTAB
  0
TABLE
  2
BLOCK_RECORD
  5
1
330
0
100
AcDbSymbolTable
 70
     6
  0
BLOCK_RECORD
  5
1F
330
1
100
AcDbSymbolTableRecord
100
AcDbBlockTableRecord
  2
*Model_Space
340
22
  0
BLOCK_RECORD
  5
1B
330
1
100
AcDbSymbolTableRecord
100
AcDbBlockTableRecord
  2
*Paper_Space
340
1E
  0
BLOCK_RECORD
  5
23
330
1
100
AcDbSymbolTableRecord
100
AcDbBlockTableRecord
  2
*Paper_Space0
340
26
  0
BLOCK_RECORD
  5
3C
330
1
100
AcDbSymbolTableRecord
100
AcDbBlockTableRecord
  2
block 2
340
0
102
{BLKREFS
331
3D
102
}
  0
BLOCK_RECORD
  5
A7
330
1
100
AcDbSymbolTableRecord
100
AcDbBlockTableRecord
  2
block 3
340
0
102
{BLKREFS
331
A8
102
}
  0
BLOCK_RECORD
  5
AD
330
1
100
AcDbSymbolTableRecord
100
AcDbBlockTableRecord
  2
block 4
340
0
102
{BLKREFS
331
AE
102
}
  0
BLOCK_RECORD
  5
B1
330
1
100
AcDbSymbolTableRecord
100
AcDbBlockTableRecord
  2
block 5
340
0
102
{BLKREFS
331
B2
102
}
  0
BLOCK_RECORD
  5
B5
330
1
100
AcDbSymbolTableRecord
100
AcDbBlockTableRecord
  2
block 6
340
0
102
{BLKREFS
331
B6
102
}
  0
ENDTAB
  0
ENDSEC
  0
SECTION
  2
BLOCKS
  0
BLOCK
  5
20
330
1F
100
AcDbEntity
  8
0
100
AcDbBlockBegin
  2
*Model_Space
 70
     0
 71
     0
 10
0.0
 20
0.0
 30
0.0
  3
*Model_Space
  1

  0
ENDBLK
  5
21
330
1F
100
AcDbEntity
  8
0
100
AcDbBlockEnd
  0
BLOCK
  5
1C
330
1B
100
AcDbEntity
 67
     1
  8
0
100
AcDbBlockBegin
  2
*Paper_Space
 70
     0
 71
     0
 10
0.0
 20
0.0
 30
0.0
  3
*Paper_Space
  1

  0
ENDBLK
  5
1D
330
1B
100
AcDbEntity
 67
     1
  8
0
100
AcDbBlockEnd
  0
BLOCK
  5
24
330
23
100
AcDbEntity
  8
0
100
AcDbBlockBegin
  2
*Paper_Space0
 70
     0
 71
     0
 10
0.0
 20
0.0
 30
0.0
  3
*Paper_Space0
  1

  0
ENDBLK
  5
25
330
23
100
AcDbEntity
  8
0
100
AcDbBlockEnd
  0
BLOCK
  5
3E
330
3C
100
AcDbEntity
  8
0
100
AcDbBlockBegin
  2
block 2
 70
     0
 71
     0
 10
0.0
 20
0.0
 30
0.0
  3
block 2
  1

  0
IMAGE
  5
43
330
3C
100
AcDbEntity
  8
Layer 1
 92
        8
310
0800000000000000
100
AcDbRasterImage
 90
        0
 10
11.56967163085938
 20
-269.1219177246094
 30
0.0
 11
0.2650368375132283
 21
0.0
 31
0.0
 12
0.0
 22
0.2706950187683105
 32
0.0
 13
251.0
 23
40.0
340
41
 70
     3
280
     0
281
    50
282
    50
283
     0
360
44
 71
     1
 91
        2
 14
-0.5
 24
-0.5
 14
250.5
 24
39.5
  0
POLYLINE
  5
45
330
3C
100
AcDbEntity
  8
Layer 1
370
     0
100
AcDb2dPolyline
 66
     1
 10
0.0
 20
0.0
 30
0.0
  0
VERTEX
  5
46
330
45
100
AcDbEntity
  8
Layer 1
370
     0
100
AcDbVertex
100
AcDb2dVertex
 10
11.56967180056274
 20
-269.1220795977964
 30
0.0
  0
VERTEX
  5
47
330
45
100
AcDbEntity
  8
Layer 1
370
     0
100
AcDbVertex
100
AcDb2dVertex
 10
78.09382048725135
 20
-269.1220795977964
 30
0.0
  0
VERTEX
  5
48
330
45
100
AcDbEntity
  8
Layer 1
370
     0
100
AcDbVertex
100
AcDb2dVertex
 10
78.09382048725135
 20
-258.2941373445228
 30
0.0
  0
VERTEX
  5
49
330
45
100
AcDbEntity
  8
Layer 1
370
     0
100
AcDbVertex
100
AcDb2dVertex
 10
11.56967180056274
 20
-258.2941373445228
 30
0.0
  0
VERTEX
  5
4A
330
45
100
AcDbEntity
  8
Layer 1
370
     0
100
AcDbVertex
100
AcDb2dVertex
 10
11.56967180056274
 20
-269.1220795977964
 30
0.0
  0
SEQEND
  5
4B
330
45
100
AcDbEntity
  8
Layer 1
370
     0
  0
ENDBLK
  5
3F
330
3C
100
AcDbEntity
  8
0
100
AcDbBlockEnd
  0
BLOCK
  5
A9
330
A7
100
AcDbEntity
  8
0
100
AcDbBlockBegin
  2
block 3
 70
     0
 71
     0
 10
0.0
 20
0.0
 30
0.0
  3
block 3
  1

  0
MTEXT
  5
AB
330
A7
100
AcDbEntity
  8
Layer 1
 62
    18
420
    65793
100
AcDbMText
 10
118.2378221118999
 20
-271.4261609783212
 30
0.0
 40
4.653106244767444
 41
0.0
 71
     7
 72
     1
  1
\fArial,Bold|b0|i0|c0|p34;\W0.979537;65mm  88   Junction
 73
     1
 44
1.0
  0
ENDBLK
  5
AA
330
A7
100
AcDbEntity
  8
0
100
AcDbBlockEnd
  0
BLOCK
  5
AF
330
AD
100
AcDbEntity
  8
0
100
AcDbBlockBegin
  2
block 4
 70
     0
 71
     0
 10
0.0
 20
0.0
 30
0.0
  3
block 4
  1

  0
INSERT
  5
B2
330
AD
100
AcDbEntity
  8
Layer 1
100
AcDbBlockReference
  2
block 5
 10
0.0
 20
0.0
 30
0.0
  0
POLYLINE
  5
3A7
330
AD
100
AcDbEntity
  8
Layer 1
370
     0
100
AcDb2dPolyline
 66
     1
 10
0.0
 20
0.0
 30
0.0
  0
VERTEX
  5
3A8
330
3A7
100
AcDbEntity
  8
Layer 1
370
     0
100
AcDbVertex
100
AcDb2dVertex
 10
12.30502791699966
 20
-35.31535260708947
 30
0.0
  0
VERTEX
  5
3A9
330
3A7
100
AcDbEntity
  8
Layer 1
370
     0
100
AcDbVertex
100
AcDb2dVertex
 10
202.7281556063587
 20
-35.31535260708947
 30
0.0
  0
VERTEX
  5
3AA
330
3A7
100
AcDbEntity
  8
Layer 1
370
     0
100
AcDbVertex
100
AcDb2dVertex
 10
202.7281556063587
 20
-225.8061764673925
 30
0.0
  0
VERTEX
  5
3AB
330
3A7
100
AcDbEntity
  8
Layer 1
370
     0
100
AcDbVertex
100
AcDb2dVertex
 10
12.30502791699966
 20
-225.8061764673925
 30
0.0
  0
VERTEX
  5
3AC
330
3A7
100
AcDbEntity
  8
Layer 1
370
     0
100
AcDbVertex
100
AcDb2dVertex
 10
12.30502791699966
 20
-35.31535260708947
 30
0.0
  0
SEQEND
  5
3AD
330
3A7
100
AcDbEntity
  8
Layer 1
370
     0
  0
ENDBLK
  5
B0
330
AD
100
AcDbEntity
  8
0
100
AcDbBlockEnd
  0
BLOCK
  5
B3
330
B1
100
AcDbEntity
  8
0
100
AcDbBlockBegin
  2
block 5
 70
     0
 71
     0
 10
0.0
 20
0.0
 30
0.0
  3
block 5
  1

  0
INSERT
  5
B6
330
B1
100
AcDbEntity
  8
Layer 1
100
AcDbBlockReference
  2
block 6
 10
0.0
 20
0.0
 30
0.0
  0
ENDBLK
  5
B4
330
B1
100
AcDbEntity
  8
0
100
AcDbBlockEnd
  0
BLOCK
  5
B7
330
B5
100
AcDbEntity
  8
0
100
AcDbBlockBegin
  2
block 6
 70
     0
 71
     0
 10
0.0
 20
0.0
 30
0.0
  3
block 6
  1

  0
MTEXT
  5
B9
330
B5
100
AcDbEntity
  8
Layer 1
 62
     7
420
 16777215
100
AcDbMText
 10
14.34779863258304
 20
-144.5966095678406
 30
0.0
 40
2.167015676602845
 41
0.0
 71
     7
 72
     1
  1
\fHelvetica|b0|i0|c0|p34;\W1;104
 73
     1
 44
1.0
  0
POLYLINE
  5
BA
330
B5
100
AcDbEntity
  8
Layer 1
370
     0
100
AcDb2dPolyline
 66
     1
 10
0.0
 20
0.0
 30
0.0
  0
VERTEX
  5
BB
330
BA
100
AcDbEntity
  8
Layer 1
370
     0
100
AcDbVertex
100
AcDb2dVertex
 10
16.55403923678171
 20
-185.819271300507
 30
0.0
  0
VERTEX
  5
BC
330
BA
100
AcDbEntity
  8
Layer 1
370
     0
100
AcDbVertex
100
AcDb2dVertex
 10
15.94115634564032
 20
-183.3677397359415
 30
0.0
  0
VERTEX
  5
BD
330
BA
100
AcDbEntity
  8
Layer 1
370
     0
100
AcDbVertex
100
AcDb2dVertex
 10
17.16692212792309
 20
-183.3677397359415
 30
0.0
  0
VERTEX
  5
BE
330
BA
100
AcDbEntity
  8
Layer 1
370
     0
100
AcDbVertex
100
AcDb2dVertex
 10
16.55403923678171
 20
-185.819271300507
 30
0.0
  0
SEQEND
  5
BF
330
BA
100
AcDbEntity
  8
Layer 1
370
     0
  0
HATCH
  5
C0
330
B5
100
AcDbEntity
  8
Layer 1
 62
     7
420
 16777215
100
AcDbHatch
 10
0.0
 20
0.0
 30
0.0
210
0.0
220
0.0
230
1.0
  2
SOLID
 70
     1
 71
     0
 91
        1
 92
        1
 93
        3
 72
     1
 10
16.55403923678171
 20
-185.819271300507
 11
15.94115634564032
 21
-183.3677397359415
 72
     1
 10
15.94115634564032
 20
-183.3677397359415
 11
17.16692212792309
 21
-183.3677397359415
 72
     1
 10
17.16692212792309
 20
-183.3677397359415
 11
16.55403923678171
 21
-185.819271300507
 97
        0
 75
     2
 76
     1
 98
        0
  0
POLYLINE
  5
C1
330
B5
100
AcDbEntity
  8
Layer 1
370
     0
100
AcDb2dPolyline
 66
     1
 10
0.0
 20
0.0
 30
0.0
  0
VERTEX
  5
C2
330
C1
100
AcDbEntity
  8
Layer 1
370
     0
100
AcDbVertex
100
AcDb2dVertex
 10
16.55403923678171
 20
-100.9231052901603
 30
0.0
  0
VERTEX
  5
C3
330
C1
100
AcDbEntity
  8
Layer 1
370
     0
100
AcDbVertex
100
AcDb2dVertex
 10
17.16692212792309
 20
-103.3744645998379
 30
0.0
  0
VERTEX
  5
C4
330
C1
100
AcDbEntity
  8
Layer 1
370
     0
100
AcDbVertex
100
AcDb2dVertex
 10
15.94115634564032
 20
-103.3744645998379
 30
0.0
  0
VERTEX
  5
C5
330
C1
100
AcDbEntity
  8
Layer 1
370
     0
100
AcDbVertex
100
AcDb2dVertex
 10
16.55403923678171
 20
-100.9231052901603
 30
0.0
  0
SEQEND
  5
C6
330
C1
100
AcDbEntity
  8
Layer 1
370
     0
  0
HATCH
  5
C7
330
B5
100
AcDbEntity
  8
Layer 1
 62
     7
420
 16777215
100
AcDbHatch
 10
0.0
 20
0.0
 30
0.0
210
0.0
220
0.0
230
1.0
  2
SOLID
 70
     1
 71
     0
 91
        1
 92
        1
 93
        3
 72
     1
 10
16.55403923678171
 20
-100.9231052901603
 11
17.16692212792309
 21
-103.3744645998379
 72
     1
 10
17.16692212792309
 20
-103.3744645998379
 11
15.94115634564032
 21
-103.3744645998379
 72
     1
 10
15.94115634564032
 20
-103.3744645998379
 11
16.55403923678171
 21
-100.9231052901603
 97
        0
 75
     2
 76
     1
 98
        0
  0
MTEXT
  5
C8
330
B5
100
AcDbEntity
  8
Layer 1
 62
     7
420
 16777215
100
AcDbMText
 10
194.9229421259207
 20
-116.7719330158872
 30
0.0
 40
2.167015676602845
 41
0.0
 71
     7
 72
     1
  1
\fHelvetica|b0|i0|c0|p34;\W1;172
 73
     1
 44
1.0
  0
POLYLINE
  5
C9
330
B5
100
AcDbEntity
  8
Layer 1
370
     0
100
AcDb2dPolyline
 66
     1
 10
0.0
 20
0.0
 30
0.0
  0
VERTEX
  5
CA
330
C9
100
AcDbEntity
  8
Layer 1
370
     0
100
AcDbVertex
100
AcDb2dVertex
 10
197.1291827301194
 20
-185.819271300507
 30
0.0
  0
VERTEX
  5
CB
330
C9
100
AcDbEntity
  8
Layer 1
370
     0
100
AcDbVertex
100
AcDb2dVertex
 10
196.516299838978
 20
-183.3677397359415
 30
0.0
  0
VERTEX
  5
CC
330
C9
100
AcDbEntity
  8
Layer 1
370
     0
100
AcDbVertex
100
AcDb2dVertex
 10
197.7420656212608
 20
-183.3677397359415
 30
0.0
  0
VERTEX
  5
CD
330
C9
100
AcDbEntity
  8
Layer 1
370
     0
100
AcDbVertex
100
AcDb2dVertex
 10
197.1291827301194
 20
-185.819271300507
 30
0.0
  0
SEQEND
  5
CE
330
C9
100
AcDbEntity
  8
Layer 1
370
     0
  0
HATCH
  5
CF
330
B5
100
AcDbEntity
  8
Layer 1
 62
     7
420
 16777215
100
AcDbHatch
 10
0.0
 20
0.0
 30
0.0
210
0.0
220
0.0
230
1.0
  2
SOLID
 70
     1
 71
     0
 91
        1
 92
        1
 93
        3
 72
     1
 10
197.1291827301194
 20
-185.819271300507
 11
196.516299838978
 21
-183.3677397359415
 72
     1
 10
196.516299838978
 20
-183.3677397359415
 11
197.7420656212608
 21
-183.3677397359415
 72
     1
 10
197.7420656212608
 20
-183.3677397359415
 11
197.1291827301194
 21
-185.819271300507
 97
        0
 75
     2
 76
     1
 98
        0
  0
POLYLINE
  5
D0
330
B5
100
AcDbEntity
  8
Layer 1
370
     0
100
AcDb2dPolyline
 66
     1
 10
0.0
 20
0.0
 30
0.0
  0
VERTEX
  5
D1
330
D0
100
AcDbEntity
  8
Layer 1
370
     0
100
AcDbVertex
100
AcDb2dVertex
 10
197.1291827301194
 20
-45.27340767647773
 30
0.0
  0
VERTEX
  5
D2
330
D0
100
AcDbEntity
  8
Layer 1
370
     0
100
AcDbVertex
100
AcDb2dVertex
 10
197.7420656212608
 20
-47.72442247637957
 30
0.0
  0
VERTEX
  5
D3
330
D0
100
AcDbEntity
  8
Layer 1
370
     0
100
AcDbVertex
100
AcDb2dVertex
 10
196.516299838978
 20
-47.72442247637957
 30
0.0
  0
VERTEX
  5
D4
330
D0
100
AcDbEntity
  8
Layer 1
370
     0
100
AcDbVertex
100
AcDb2dVertex
 10
197.1291827301194
 20
-45.27340767647773
 30
0.0
  0
SEQEND
  5
D5
330
D0
100
AcDbEntity
  8
Layer 1
370
     0
  0
HATCH
  5
D6
330
B5
100
AcDbEntity
  8
Layer 1
 62
     7
420
 16777215
100
AcDbHatch
 10
0.0
 20
0.0
 30
0.0
210
0.0
220
0.0
230
1.0
  2
SOLID
 70
     1
 71
     0
 91
        1
 92
        1
 93
        3
 72
     1
 10
197.1291827301194
 20
-45.27340767647773
 11
197.7420656212608
 21
-47.72442247637957
 72
     1
 10
197.7420656212608
 20
-47.72442247637957
 11
196.516299838978
 21
-47.72442247637957
 72
     1
 10
196.516299838978
 20
-47.72442247637957
 11
197.1291827301194
 21
-45.27340767647773
 97
        0
 75
     2
 76
     1
 98
        0
  0
MTEXT
  5
D7
330
B5
100
AcDbEntity
  8
Layer 1
 62
     7
420
 16777215
100
AcDbMText
 10
104.9733344693079
 20
-201.1847518107919
 30
0.0
 40
2.167015676602845
 41
0.0
 71
     7
 72
     1
  1
\fHelvetica|b0|i0|c0|p34;\W1;135
 73
     1
 44
1.0
  0
POLYLINE
  5
D8
330
B5
100
AcDbEntity
  8
Layer 1
370
     0
100
AcDb2dPolyline
 66
     1
 10
0.0
 20
0.0
 30
0.0
  0
VERTEX
  5
D9
330
D8
100
AcDbEntity
  8
Layer 1
370
     0
100
AcDbVertex
100
AcDb2dVertex
 10
162.4532402669076
 20
-199.9593305382849
 30
0.0
  0
VERTEX
  5
DA
330
D8
100
AcDbEntity
  8
Layer 1
370
     0
100
AcDbVertex
100
AcDb2dVertex
 10
160.0020532121179
 20
-200.5718689196505
 30
0.0
  0
VERTEX
  5
DB
330
D8
100
AcDbEntity
  8
Layer 1
370
     0
100
AcDbVertex
100
AcDb2dVertex
 10
160.0020532121179
 20
-199.3464476471435
 30
0.0
  0
VERTEX
  5
DC
330
D8
100
AcDbEntity
  8
Layer 1
370
     0
100
AcDbVertex
100
AcDb2dVertex
 10
162.4532402669076
 20
-199.9593305382849
 30
0.0
  0
SEQEND
  5
DD
330
D8
100
AcDbEntity
  8
Layer 1
370
     0
  0
HATCH
  5
DE
330
B5
100
AcDbEntity
  8
Layer 1
 62
     7
420
 16777215
100
AcDbHatch
 10
0.0
 20
0.0
 30
0.0
210
0.0
220
0.0
230
1.0
  2
SOLID
 70
     1
 71
     0
 91
        1
 92
        1
 93
        3
 72
     1
 10
162.4532402669076
 20
-199.9593305382849
 11
160.0020532121179
 21
-200.5718689196505
 72
     1
 10
160.0020532121179
 20
-200.5718689196505
 11
160.0020532121179
 21
-199.3464476471435
 72
     1
 10
160.0020532121179
 20
-199.3464476471435
 11
162.4532402669076
 21
-199.9593305382849
 97
        0
 75
     2
 76
     1
 98
        0
  0
POLYLINE
  5
DF
330
B5
100
AcDbEntity
  8
Layer 1
370
     0
100
AcDb2dPolyline
 66
     1
 10
0.0
 20
0.0
 30
0.0
  0
VERTEX
  5
E0
330
DF
100
AcDbEntity
  8
Layer 1
370
     0
100
AcDbVertex
100
AcDb2dVertex
 10
51.90573762521768
 20
-199.9593305382849
 30
0.0
  0
VERTEX
  5
E1
330
DF
100
AcDbEntity
  8
Layer 1
370
     0
100
AcDbVertex
100
AcDb2dVertex
 10
54.35709693489532
 20
-199.3464476471435
 30
0.0
  0
VERTEX
  5
E2
330
DF
100
AcDbEntity
  8
Layer 1
370
     0
100
AcDbVertex
100
AcDb2dVertex
 10
54.35709693489532
 20
-200.5718689196505
 30
0.0
  0
VERTEX
  5
E3
330
DF
100
AcDbEntity
  8
Layer 1
370
     0
100
AcDbVertex
100
AcDb2dVertex
 10
51.90573762521768
 20
-199.9593305382849
 30
0.0
  0
SEQEND
  5
E4
330
DF
100
AcDbEntity
  8
Layer 1
370
     0
  0
HATCH
  5
E5
330
B5
100
AcDbEntity
  8
Layer 1
 62
     7
420
 16777215
100
AcDbHatch
 10
0.0
 20
0.0
 30
0.0
210
0.0
220
0.0
230
1.0
  2
SOLID
 70
     1
 71
     0
 91
        1
 92
        1
 93
        3
 72
     1
 10
51.90573762521768
 20
-199.9593305382849
 11
54.35709693489532
 21
-199.3464476471435
 72
     1
 10
54.35709693489532
 20
-199.3464476471435
 11
54.35709693489532
 21
-200.5718689196505
 72
     1
 10
54.35709693489532
 20
-200.5718689196505
 11
51.90573762521768
 21
-199.9593305382849
 97
        0
 75
     2
 76
     1
 98
        0
  0
POLYLINE
  5
E6
330
B5
100
AcDbEntity
  8
Layer 1
 62
     7
420
 16777215
370
     9
100
AcDb2dPolyline
 66
     1
 10
0.0
 20
0.0
 30
0.0
  0
VERTEX
  5
E7
330
E6
100
AcDbEntity
  8
Layer 1
 62
     7
420
 16777215
370
     9
100
AcDbVertex
100
AcDb2dVertex
 10
165.8917923391292
 20
-128.279076292143
 30
0.0
  0
VERTEX
  5
E8
330
E6
100
AcDbEntity
  8
Layer 1
 62
     7
420
 16777215
370
     9
100
AcDbVertex
100
AcDb2dVertex
 10
165.8917923391292
 20
-128.6878371411251
 30
0.0
  0
VERTEX
  5
E9
330
E6
100
AcDbEntity
  8
Layer 1
 62
     7
420
 16777215
370
     9
100
AcDbVertex
100
AcDb2dVertex
 10
166.0960866361763
 20
-128.8919591832843
 30
0.0
  0
VERTEX
  5
EA
330
E6
100
AcDbEntity
  8
Layer 1
 62
     7
420
 16777215
370
     9
100
AcDbVertex
100
AcDb2dVertex
 10
166.5046752302706
 20
-128.8919591832843
 30
0.0
  0
VERTEX
  5
EB
330
E6
100
AcDbEntity
  8
Layer 1
 62
     7
420
 16777215
370
     9
100
AcDbVertex
100
AcDb2dVertex
 10
166.7089695273177
 20
-128.6878371411251
 30
0.0
  0
VERTEX
  5
EC
330
E6
100
AcDbEntity
  8
Layer 1
 62
     7
420
 16777215
370
     9
100
AcDbVertex
100
AcDb2dVertex
 10
166.7089695273177
 20
-128.279076292143
 30
0.0
  0
VERTEX
  5
ED
330
E6
100
AcDbEntity
  8
Layer 1
 62
     7
420
 16777215
370
     9
100
AcDbVertex
100
AcDb2dVertex
 10
166.5046752302706
 20
-128.0749542499837
 30
0.0
  0
VERTEX
  5
EE
330
E6
100
AcDbEntity
  8
Layer 1
 62
     7
420
 16777215
370
     9
100
AcDbVertex
100
AcDb2dVertex
 10
166.0960866361763
 20
-128.0749542499837
 30
0.0
  0
VERTEX
  5
EF
330
E6
100
AcDbEntity
  8
Layer 1
 62
     7
420
 16777215
370
     9
100
AcDbVertex
100
AcDb2dVertex
 10
165.8917923391292
 20
-128.279076292143
 30
0.0
  0
SEQEND
  5
F0
330
E6
100
AcDbEntity
  8
Layer 1
370
     9
  0
MTEXT
  5
F1
330
B5
100
AcDbEntity
  8
Layer 1
 62
     7
420
 16777215
100
AcDbMText
 10
162.9503678733815
 20
-131.1390241959149
 30
0.0
 40
2.167015676602845
 41
0.0
 71
     7
 72
     1
  1
\fHelvetica|b0|i0|c0|p34;\W1;88
 73
     1
 44
1.0
  0
POLYLINE
  5
F2
330
B5
100
AcDbEntity
  8
Layer 1
370
     0
100
AcDb2dPolyline
 66
     1
 10
0.0
 20
0.0
 30
0.0
  0
VERTEX
  5
F3
330
F2
100
AcDbEntity
  8
Layer 1
370
     0
100
AcDbVertex
100
AcDb2dVertex
 10
131.8111627684932
 20
-146.1701579687896
 30
0.0
  0
VERTEX
  5
F4
330
F2
100
AcDbEntity
  8
Layer 1
370
     0
100
AcDbVertex
100
AcDb2dVertex
 10
134.2440908051657
 20
-145.48665057361
 30
0.0
  0
VERTEX
  5
F5
330
F2
100
AcDbEntity
  8
Layer 1
370
     0
100
AcDbVertex
100
AcDb2dVertex
 10
134.2792308022969
 20
-146.712071846117
 30
0.0
  0
VERTEX
  5
F6
330
F2
100
AcDbEntity
  8
Layer 1
370
     0
100
AcDbVertex
100
AcDb2dVertex
 10
131.8111627684932
 20
-146.1701579687896
 30
0.0
  0
SEQEND
  5
F7
330
F2
100
AcDbEntity
  8
Layer 1
370
     0
  0
HATCH
  5
F8
330
B5
100
AcDbEntity
  8
Layer 1
 62
     7
420
 16777215
100
AcDbHatch
 10
0.0
 20
0.0
 30
0.0
210
0.0
220
0.0
230
1.0
  2
SOLID
 70
     1
 71
     0
 91
        1
 92
        1
 93
        3
 72
     1
 10
131.8111627684932
 20
-146.1701579687896
 11
134.2440908051657
 21
-145.48665057361
 72
     1
 10
134.2440908051657
 20
-145.48665057361
 11
134.2792308022969
 21
-146.712071846117
 72
     1
 10
134.2792308022969
 20
-146.712071846117
 11
131.8111627684932
 21
-146.1701579687896
 97
        0
 75
     2
 76
     1
 98
        0
  0
POLYLINE
  5
F9
330
B5
100
AcDbEntity
  8
Layer 1
370
     0
100
AcDb2dPolyline
 66
     1
 10
0.0
 20
0.0
 30
0.0
  0
VERTEX
  5
FA
330
F9
100
AcDbEntity
  8
Layer 1
370
     0
100
AcDbVertex
100
AcDb2dVertex
 10
174.2795718504385
 20
-105.1585084737984
 30
0.0
  0
VERTEX
  5
FB
330
F9
100
AcDbEntity
  8
Layer 1
370
     0
100
AcDbVertex
100
AcDb2dVertex
 10
174.7350137740411
 20
-107.6439742512798
 30
0.0
  0
VERTEX
  5
FC
330
F9
100
AcDbEntity
  8
Layer 1
370
     0
100
AcDbVertex
100
AcDb2dVertex
 10
173.5120040699646
 20
-107.565942787062
 30
0.0
  0
VERTEX
  5
FD
330
F9
100
AcDbEntity
  8
Layer 1
370
     0
100
AcDbVertex
100
AcDb2dVertex
 10
174.2795718504385
 20
-105.1585084737984
 30
0.0
  0
SEQEND
  5
FE
330
F9
100
AcDbEntity
  8
Layer 1
370
     0
  0
HATCH
  5
FF
330
B5
100
AcDbEntity
  8
Layer 1
 62
     7
420
 16777215
100
AcDbHatch
 10
0.0
 20
0.0
 30
0.0
210
0.0
220
0.0
230
1.0
  2
SOLID
 70
     1
 71
     0
 91
        1
 92
        1
 93
        3
 72
     1
 10
174.2795718504385
 20
-105.1585084737984
 11
174.7350137740411
 21
-107.6439742512798
 72
     1
 10
174.7350137740411
 20
-107.6439742512798
 11
173.5120040699646
 21
-107.565942787062
 72
     1
 10
173.5120040699646
 20
-107.565942787062
 11
174.2795718504385
 21
-105.1585084737984
 97
        0
 75
     2
 76
     1
 98
        0
  0
MTEXT
  5
100
330
B5
100
AcDbEntity
  8
Layer 1
 62
     7
420
 16777215
100
AcDbMText
 10
130.3404505356193
 20
-193.9169735805959
 30
0.0
 40
2.167015676602845
 41
0.0
 71
     7
 72
     1
  1
\fHelvetica|b0|i0|c0|p34;\W1;75
 73
     1
 44
1.0
  0
POLYLINE
  5
101
330
B5
100
AcDbEntity
  8
Layer 1
370
     0
100
AcDb2dPolyline
 66
     1
 10
0.0
 20
0.0
 30
0.0
  0
VERTEX
  5
102
330
101
100
AcDbEntity
  8
Layer 1
370
     0
100
AcDbVertex
100
AcDb2dVertex
 10
101.1690852700787
 20
-192.6912077983132
 30
0.0
  0
VERTEX
  5
103
330
101
100
AcDbEntity
  8
Layer 1
370
     0
100
AcDbVertex
100
AcDb2dVertex
 10
103.6201000699806
 20
-192.0783249071718
 30
0.0
  0
VERTEX
  5
104
330
101
100
AcDbEntity
  8
Layer 1
370
     0
100
AcDbVertex
100
AcDb2dVertex
 10
103.6201000699806
 20
-193.3040906894545
 30
0.0
  0
VERTEX
  5
105
330
101
100
AcDbEntity
  8
Layer 1
370
     0
100
AcDbVertex
100
AcDb2dVertex
 10
101.1690852700787
 20
-192.6912077983132
 30
0.0
  0
SEQEND
  5
106
330
101
100
AcDbEntity
  8
Layer 1
370
     0
  0
HATCH
  5
107
330
B5
100
AcDbEntity
  8
Layer 1
 62
     7
420
 16777215
100
AcDbHatch
 10
0.0
 20
0.0
 30
0.0
210
0.0
220
0.0
230
1.0
  2
SOLID
 70
     1
 71
     0
 91
        1
 92
        1
 93
        3
 72
     1
 10
101.1690852700787
 20
-192.6912077983132
 11
103.6201000699806
 21
-192.0783249071718
 72
     1
 10
103.6201000699806
 20
-192.0783249071718
 11
103.6201000699806
 21
-193.3040906894545
 72
     1
 10
103.6201000699806
 20
-193.3040906894545
 11
101.1690852700787
 21
-192.6912077983132
 97
        0
 75
     2
 76
     1
 98
        0
  0
POLYLINE
  5
108
330
B5
100
AcDbEntity
  8
Layer 1
370
     0
100
AcDb2dPolyline
 66
     1
 10
0.0
 20
0.0
 30
0.0
  0
VERTEX
  5
109
330
108
100
AcDbEntity
  8
Layer 1
370
     0
100
AcDbVertex
100
AcDb2dVertex
 10
162.4532402669076
 20
-192.6912077983132
 30
0.0
  0
VERTEX
  5
10A
330
108
100
AcDbEntity
  8
Layer 1
370
     0
100
AcDbVertex
100
AcDb2dVertex
 10
160.0020532121179
 20
-193.3040906894545
 30
0.0
  0
VERTEX
  5
10B
330
108
100
AcDbEntity
  8
Layer 1
370
     0
100
AcDbVertex
100
AcDb2dVertex
 10
160.0020532121179
 20
-192.0783249071718
 30
0.0
  0
VERTEX
  5
10C
330
108
100
AcDbEntity
  8
Layer 1
370
     0
100
AcDbVertex
100
AcDb2dVertex
 10
162.4532402669076
 20
-192.6912077983132
 30
0.0
  0
SEQEND
  5
10D
330
108
100
AcDbEntity
  8
Layer 1
370
     0
  0
HATCH
  5
10E
330
B5
100
AcDbEntity
  8
Layer 1
 62
     7
420
 16777215
100
AcDbHatch
 10
0.0
 20
0.0
 30
0.0
210
0.0
220
0.0
230
1.0
  2
SOLID
 70
     1
 71
     0
 91
        1
 92
        1
 93
        3
 72
     1
 10
162.4532402669076
 20
-192.6912077983132
 11
160.0020532121179
 21
-193.3040906894545
 72
     1
 10
160.0020532121179
 20
-193.3040906894545
 11
160.0020532121179
 21
-192.0783249071718
 72
     1
 10
160.0020532121179
 20
-192.0783249071718
 11
162.4532402669076
 21
-192.6912077983132
 97
        0
 75
     2
 76
     1
 98
        0
  0
POLYLINE
  5
10F
330
B5
100
AcDbEntity
  8
Layer 1
 62
     7
420
 16777215
370
    25
100
AcDb2dPolyline
 66
     1
 10
0.0
 20
0.0
 30
0.0
  0
VERTEX
  5
110
330
10F
100
AcDbEntity
  8
Layer 1
 62
     7
420
 16777215
370
    25
100
AcDbVertex
100
AcDb2dVertex
 10
-41.52221298272115
 20
-241.1782026634176
 30
0.0
  0
VERTEX
  5
111
330
10F
100
AcDbEntity
  8
Layer 1
 62
     7
420
 16777215
370
    25
100
AcDbVertex
100
AcDb2dVertex
 10
-41.52221298272115
 20
1.508436053323525
 30
0.0
  0
SEQEND
  5
112
330
10F
100
AcDbEntity
  8
Layer 1
370
    25
  0
POLYLINE
  5
113
330
B5
100
AcDbEntity
  8
Layer 1
 62
     7
420
 16777215
370
    25
100
AcDb2dPolyline
 66
     1
 10
0.0
 20
0.0
 30
0.0
  0
VERTEX
  5
114
330
113
100
AcDbEntity
  8
Layer 1
 62
     7
420
 16777215
370
    25
100
AcDbVertex
100
AcDb2dVertex
 10
-41.52221298272115
 20
-241.1782026634176
 30
0.0
  0
VERTEX
  5
115
330
113
100
AcDbEntity
  8
Layer 1
 62
     7
420
 16777215
370
    25
100
AcDbVertex
100
AcDb2dVertex
 10
301.6706741954669
 20
-241.1782026634176
 30
0.0
  0
SEQEND
  5
116
330
113
100
AcDbEntity
  8
Layer 1
370
    25
  0
POLYLINE
  5
117
330
B5
100
AcDbEntity
  8
Layer 1
 62
     7
420
 16777215
370
    25
100
AcDb2dPolyline
 66
     1
 10
0.0
 20
0.0
 30
0.0
  0
VERTEX
  5
118
330
117
100
AcDbEntity
  8
Layer 1
 62
     7
420
 16777215
370
    25
100
AcDbVertex
100
AcDb2dVertex
 10
-41.52221298272115
 20
1.508436053323525
 30
0.0
  0
VERTEX
  5
119
330
117
100
AcDbEntity
  8
Layer 1
 62
     7
420
 16777215
370
    25
100
AcDbVertex
100
AcDb2dVertex
 10
301.6706741954669
 20
1.508436053323525
 30
0.0
  0
SEQEND
  5
11A
330
117
100
AcDbEntity
  8
Layer 1
370
    25
  0
POLYLINE
  5
11B
330
B5
100
AcDbEntity
  8
Layer 1
 62
     7
420
 16777215
370
    25
100
AcDb2dPolyline
 66
     1
 10
0.0
 20
0.0
 30
0.0
  0
VERTEX
  5
11C
330
11B
100
AcDbEntity
  8
Layer 1
 62
     7
420
 16777215
370
    25
100
AcDbVertex
100
AcDb2dVertex
 10
301.6706741954669
 20
-241.1782026634176
 30
0.0
  0
VERTEX
  5
11D
330
11B
100
AcDbEntity
  8
Layer 1
 62
     7
420
 16777215
370
    25
100
AcDbVertex
100
AcDb2dVertex
 10
301.6706741954669
 20
1.508436053323525
 30
0.0
  0
SEQEND
  5
11E
330
11B
100
AcDbEntity
  8
Layer 1
370
    25
  0
POLYLINE
  5
11F
330
B5
100
AcDbEntity
  8
Layer 1
 62
     7
420
 16777215
370
    25
100
AcDb2dPolyline
 66
     1
 10
0.0
 20
0.0
 30
0.0
  0
VERTEX
  5
120
330
11F
100
AcDbEntity
  8
Layer 1
 62
     7
420
 16777215
370
    25
100
AcDbVertex
100
AcDb2dVertex
 10
16.55403923678171
 20
-100.9231052901603
 30
0.0
  0
VERTEX
  5
121
330
11F
100
AcDbEntity
  8
Layer 1
 62
     7
420
 16777215
370
    25
100
AcDbVertex
100
AcDb2dVertex
 10
16.55403923678171
 20
-140.919828985656
 30
0.0
  0
SEQEND
  5
122
330
11F
100
AcDbEntity
  8
Layer 1
370
    25
  0
POLYLINE
  5
123
330
B5
100
AcDbEntity
  8
Layer 1
 62
     7
420
 16777215
370
    25
100
AcDb2dPolyline
 66
     1
 10
0.0
 20
0.0
 30
0.0
  0
VERTEX
  5
124
330
123
100
AcDbEntity
  8
Layer 1
 62
     7
420
 16777215
370
    25
100
AcDbVertex
100
AcDb2dVertex
 10
16.55403923678171
 20
-185.819271300507
 30
0.0
  0
VERTEX
  5
125
330
123
100
AcDbEntity
  8
Layer 1
 62
     7
420
 16777215
370
    25
100
AcDbVertex
100
AcDb2dVertex
 10
16.55403923678171
 20
-145.8225476050113
 30
0.0
  0
SEQEND
  5
126
330
123
100
AcDbEntity
  8
Layer 1
370
    25
  0
POLYLINE
  5
127
330
B5
100
AcDbEntity
  8
Layer 1
 62
     7
420
 16777215
370
    25
100
AcDb2dPolyline
 66
     1
 10
0.0
 20
0.0
 30
0.0
  0
VERTEX
  5
128
330
127
100
AcDbEntity
  8
Layer 1
 62
     7
420
 16777215
370
    25
100
AcDbVertex
100
AcDb2dVertex
 10
162.4532402669076
 20
-199.9593305382849
 30
0.0
  0
VERTEX
  5
129
330
127
100
AcDbEntity
  8
Layer 1
 62
     7
420
 16777215
370
    25
100
AcDbVertex
100
AcDb2dVertex
 10
110.6114092051001
 20
-199.9593305382849
 30
0.0
  0
SEQEND
  5
12A
330
127
100
AcDbEntity
  8
Layer 1
370
    25
  0
POLYLINE
  5
12B
330
B5
100
AcDbEntity
  8
Layer 1
 62
     7
420
 16777215
370
    25
100
AcDb2dPolyline
 66
     1
 10
0.0
 20
0.0
 30
0.0
  0
VERTEX
  5
12C
330
12B
100
AcDbEntity
  8
Layer 1
 62
     7
420
 16777215
370
    25
100
AcDbVertex
100
AcDb2dVertex
 10
51.90573762521768
 20
-199.9593305382849
 30
0.0
  0
VERTEX
  5
12D
330
12B
100
AcDbEntity
  8
Layer 1
 62
     7
420
 16777215
370
    25
100
AcDbVertex
100
AcDb2dVertex
 10
103.7475686870252
 20
-199.9593305382849
 30
0.0
  0
SEQEND
  5
12E
330
12B
100
AcDbEntity
  8
Layer 1
370
    25
  0
POLYLINE
  5
12F
330
B5
100
AcDbEntity
  8
Layer 1
 62
     7
420
 16777215
370
    25
100
AcDb2dPolyline
 66
     1
 10
0.0
 20
0.0
 30
0.0
  0
VERTEX
  5
130
330
12F
100
AcDbEntity
  8
Layer 1
 62
     7
420
 16777215
370
    25
100
AcDbVertex
100
AcDb2dVertex
 10
162.4532402669076
 20
-192.6912077983132
 30
0.0
  0
VERTEX
  5
131
330
12F
100
AcDbEntity
  8
Layer 1
 62
     7
420
 16777215
370
    25
100
AcDbVertex
100
AcDb2dVertex
 10
134.5076407836498
 20
-192.6912077983132
 30
0.0
  0
SEQEND
  5
132
330
12F
100
AcDbEntity
  8
Layer 1
370
    25
  0
POLYLINE
  5
133
330
B5
100
AcDbEntity
  8
Layer 1
 62
     7
420
 16777215
370
    25
100
AcDb2dPolyline
 66
     1
 10
0.0
 20
0.0
 30
0.0
  0
VERTEX
  5
134
330
133
100
AcDbEntity
  8
Layer 1
 62
     7
420
 16777215
370
    25
100
AcDbVertex
100
AcDb2dVertex
 10
101.1690852700787
 20
-192.6912077983132
 30
0.0
  0
VERTEX
  5
135
330
133
100
AcDbEntity
  8
Layer 1
 62
     7
420
 16777215
370
    25
100
AcDbVertex
100
AcDb2dVertex
 10
129.1146847533366
 20
-192.6912077983132
 30
0.0
  0
SEQEND
  5
136
330
133
100
AcDbEntity
  8
Layer 1
370
    25
  0
POLYLINE
  5
137
330
B5
100
AcDbEntity
  8
Layer 1
 62
     7
420
 16777215
370
    25
100
AcDb2dPolyline
 66
     1
 10
0.0
 20
0.0
 30
0.0
  0
VERTEX
  5
138
330
137
100
AcDbEntity
  8
Layer 1
 62
     7
420
 16777215
370
    25
100
AcDbVertex
100
AcDb2dVertex
 10
162.0446516728134
 20
-185.819271300507
 30
0.0
  0
VERTEX
  5
139
330
137
100
AcDbEntity
  8
Layer 1
 62
     7
420
 16777215
370
    25
100
AcDbVertex
100
AcDb2dVertex
 10
101.5775016092851
 20
-185.819271300507
 30
0.0
  0
SEQEND
  5
13A
330
137
100
AcDbEntity
  8
Layer 1
370
    25
  0
POLYLINE
  5
13B
330
B5
100
AcDbEntity
  8
Layer 1
 62
     7
420
 16777215
370
    25
100
AcDb2dPolyline
 66
     1
 10
0.0
 20
0.0
 30
0.0
  0
VERTEX
  5
13C
330
13B
100
AcDbEntity
  8
Layer 1
 62
     7
420
 16777215
370
    25
100
AcDbVertex
100
AcDb2dVertex
 10
100.3517358270023
 20
-185.819271300507
 30
0.0
  0
VERTEX
  5
13D
330
13B
100
AcDbEntity
  8
Layer 1
 62
     7
420
 16777215
370
    25
100
AcDbVertex
100
AcDb2dVertex
 10
14.10250767221617
 20
-185.819271300507
 30
0.0
  0
SEQEND
  5
13E
330
13B
100
AcDbEntity
  8
Layer 1
370
    25
  0
POLYLINE
  5
13F
330
B5
100
AcDbEntity
  8
Layer 1
 62
     7
420
 16777215
370
    25
100
AcDb2dPolyline
 66
     1
 10
0.0
 20
0.0
 30
0.0
  0
VERTEX
  5
140
330
13F
100
AcDbEntity
  8
Layer 1
 62
     7
420
 16777215
370
    25
100
AcDbVertex
100
AcDb2dVertex
 10
163.2704174550961
 20
-185.819271300507
 30
0.0
  0
VERTEX
  5
141
330
13F
100
AcDbEntity
  8
Layer 1
 62
     7
420
 16777215
370
    25
100
AcDbVertex
100
AcDb2dVertex
 10
199.580714294685
 20
-185.819271300507
 30
0.0
  0
SEQEND
  5
142
330
13F
100
AcDbEntity
  8
Layer 1
370
    25
  0
POLYLINE
  5
143
330
B5
100
AcDbEntity
  8
Layer 1
 62
   252
420
 10000536
370
    25
100
AcDb2dPolyline
 66
     1
 10
0.0
 20
0.0
 30
0.0
  0
VERTEX
  5
144
330
143
100
AcDbEntity
  8
Layer 1
 62
   252
420
 10000536
370
    25
100
AcDbVertex
100
AcDb2dVertex
 10
162.4532402669076
 20
-185.4103381966369
 30
0.0
  0
VERTEX
  5
145
330
143
100
AcDbEntity
  8
Layer 1
 62
   252
420
 10000536
370
    25
100
AcDbVertex
100
AcDb2dVertex
 10
101.1690852700787
 20
-185.4103381966369
 30
0.0
  0
SEQEND
  5
146
330
143
100
AcDbEntity
  8
Layer 1
370
    25
  0
POLYLINE
  5
147
330
B5
100
AcDbEntity
  8
Layer 1
 62
     7
420
 16777215
370
    25
100
AcDb2dPolyline
 66
     1
 10
0.0
 20
0.0
 30
0.0
  0
VERTEX
  5
148
330
147
100
AcDbEntity
  8
Layer 1
 62
     7
420
 16777215
370
    25
100
AcDbVertex
100
AcDb2dVertex
 10
51.90573762521768
 20
-133.1807613821709
 30
0.0
  0
VERTEX
  5
149
330
147
100
AcDbEntity
  8
Layer 1
 62
     7
420
 16777215
370
    25
100
AcDbVertex
100
AcDb2dVertex
 10
51.90573762521768
 20
-202.4105175930747
 30
0.0
  0
SEQEND
  5
14A
330
147
100
AcDbEntity
  8
Layer 1
370
    25
  0
POLYLINE
  5
14B
330
B5
100
AcDbEntity
  8
Layer 1
 62
     7
420
 16777215
370
    25
100
AcDb2dPolyline
 66
     1
 10
0.0
 20
0.0
 30
0.0
  0
VERTEX
  5
14C
330
14B
100
AcDbEntity
  8
Layer 1
 62
     7
420
 16777215
370
    25
100
AcDbVertex
100
AcDb2dVertex
 10
54.05926823371953
 20
-70.28636769327068
 30
0.0
  0
VERTEX
  5
14D
330
14B
100
AcDbEntity
  8
Layer 1
 62
     7
420
 16777215
370
    25
100
AcDbVertex
100
AcDb2dVertex
 10
51.91951801624953
 20
-131.5594983772741
 30
0.0
  0
SEQEND
  5
14E
330
14B
100
AcDbEntity
  8
Layer 1
370
    25
  0
POLYLINE
  5
14F
330
B5
100
AcDbEntity
  8
Layer 1
 62
   252
420
 10000536
370
    25
100
AcDb2dPolyline
 66
     1
 10
0.0
 20
0.0
 30
0.0
  0
VERTEX
  5
150
330
14F
100
AcDbEntity
  8
Layer 1
 62
   252
420
 10000536
370
    25
100
AcDbVertex
100
AcDb2dVertex
 10
54.46854584736538
 20
-69.89190399998407
 30
0.0
  0
VERTEX
  5
151
330
14F
100
AcDbEntity
  8
Layer 1
 62
   252
420
 10000536
370
    25
100
AcDbVertex
100
AcDb2dVertex
 10
52.30002906361639
 20
-131.9815228526244
 30
0.0
  0
SEQEND
  5
152
330
14F
100
AcDbEntity
  8
Layer 1
370
    25
  0
POLYLINE
  5
153
330
B5
100
AcDbEntity
  8
Layer 1
 62
     7
420
 16777215
370
    25
100
AcDb2dPolyline
 66
     1
 10
0.0
 20
0.0
 30
0.0
  0
VERTEX
  5
154
330
153
100
AcDbEntity
  8
Layer 1
 62
     7
420
 16777215
370
    25
100
AcDbVertex
100
AcDb2dVertex
 10
64.45002758150778
 20
-132.8016283739072
 30
0.0
  0
VERTEX
  5
155
330
153
100
AcDbEntity
  8
Layer 1
 62
     7
420
 16777215
370
    25
100
AcDbVertex
100
AcDb2dVertex
 10
66.64576063754465
 20
-69.92135958581463
 30
0.0
  0
SEQEND
  5
156
330
153
100
AcDbEntity
  8
Layer 1
370
    25
  0
POLYLINE
  5
157
330
B5
100
AcDbEntity
  8
Layer 1
 62
     7
420
 16777215
370
    25
100
AcDb2dPolyline
 66
     1
 10
0.0
 20
0.0
 30
0.0
  0
VERTEX
  5
158
330
157
100
AcDbEntity
  8
Layer 1
 62
     7
420
 16777215
370
    25
100
AcDbVertex
100
AcDb2dVertex
 10
64.98591253775872
 20
-132.0028824587237
 30
0.0
  0
VERTEX
  5
159
330
157
100
AcDbEntity
  8
Layer 1
 62
     7
420
 16777215
370
    25
100
AcDbVertex
100
AcDb2dVertex
 10
67.12480148078923
 20
-70.75559000790506
 30
0.0
  0
SEQEND
  5
15A
330
157
100
AcDbEntity
  8
Layer 1
370
    25
  0
POLYLINE
  5
15B
330
B5
100
AcDbEntity
  8
Layer 1
 62
   252
420
 10000536
370
    25
100
AcDb2dPolyline
 66
     1
 10
0.0
 20
0.0
 30
0.0
  0
VERTEX
  5
15C
330
15B
100
AcDbEntity
  8
Layer 1
 62
   252
420
 10000536
370
    25
100
AcDbVertex
100
AcDb2dVertex
 10
131.7267578734231
 20
-151.4826709664544
 30
0.0
  0
VERTEX
  5
15D
330
15B
100
AcDbEntity
  8
Layer 1
 62
   252
420
 10000536
370
    25
100
AcDbVertex
100
AcDb2dVertex
 10
131.7315810102843
 20
-151.4826709664544
 30
0.0
  0
SEQEND
  5
15E
330
15B
100
AcDbEntity
  8
Layer 1
370
    25
  0
POLYLINE
  5
15F
330
B5
100
AcDbEntity
  8
Layer 1
 62
   252
420
 10000536
370
    25
100
AcDb2dPolyline
 66
     1
 10
0.0
 20
0.0
 30
0.0
  0
VERTEX
  5
160
330
15F
100
AcDbEntity
  8
Layer 1
 62
   252
420
 10000536
370
    25
100
AcDbVertex
100
AcDb2dVertex
 10
102.9362481650252
 20
-152.1134683659372
 30
0.0
  0
VERTEX
  5
161
330
15F
100
AcDbEntity
  8
Layer 1
 62
   252
420
 10000536
370
    25
100
AcDbVertex
100
AcDb2dVertex
 10
104.7519869383589
 20
-152.078328368806
 30
0.0
  0
SEQEND
  5
162
330
15F
100
AcDbEntity
  8
Layer 1
370
    25
  0
POLYLINE
  5
163
330
B5
100
AcDbEntity
  8
Layer 1
 62
   252
420
 10000536
370
    25
100
AcDb2dPolyline
 66
     1
 10
0.0
 20
0.0
 30
0.0
  0
VERTEX
  5
164
330
163
100
AcDbEntity
  8
Layer 1
 62
   252
420
 10000536
370
    25
100
AcDbVertex
100
AcDb2dVertex
 10
104.7519869383589
 20
-152.078328368806
 30
0.0
  0
VERTEX
  5
165
330
163
100
AcDbEntity
  8
Layer 1
 62
   252
420
 10000536
370
    25
100
AcDbVertex
100
AcDb2dVertex
 10
106.5740991425448
 20
-152.0462889596569
 30
0.0
  0
SEQEND
  5
166
330
163
100
AcDbEntity
  8
Layer 1
370
    25
  0
POLYLINE
  5
167
330
B5
100
AcDbEntity
  8
Layer 1
 62
   252
420
 10000536
370
    25
100
AcDb2dPolyline
 66
     1
 10
0.0
 20
0.0
 30
0.0
  0
VERTEX
  5
168
330
167
100
AcDbEntity
  8
Layer 1
 62
   252
420
 10000536
370
    25
100
AcDbVertex
100
AcDb2dVertex
 10
106.5740991425448
 20
-152.0462889596569
 30
0.0
  0
VERTEX
  5
169
330
167
100
AcDbEntity
  8
Layer 1
 62
   252
420
 10000536
370
    25
100
AcDbVertex
100
AcDb2dVertex
 10
108.9787773776021
 20
-152.0097709234226
 30
0.0
  0
VERTEX
  5
16A
330
167
100
AcDbEntity
  8
Layer 1
 62
   252
420
 10000536
370
    25
100
AcDbVertex
100
AcDb2dVertex
 10
110.3833437335231
 20
-151.9908228857538
 30
0.0
  0
VERTEX
  5
16B
330
167
100
AcDbEntity
  8
Layer 1
 62
   252
420
 10000536
370
    25
100
AcDbVertex
100
AcDb2dVertex
 10
111.9126226282823
 20
-151.971874848085
 30
0.0
  0
VERTEX
  5
16C
330
167
100
AcDbEntity
  8
Layer 1
 62
   252
420
 10000536
370
    25
100
AcDbVertex
100
AcDb2dVertex
 10
113.5566232783816
 20
-151.953271320192
 30
0.0
  0
VERTEX
  5
16D
330
167
100
AcDbEntity
  8
Layer 1
 62
   252
420
 10000536
370
    25
100
AcDbVertex
100
AcDb2dVertex
 10
115.3067329394261
 20
-151.9357013216264
 30
0.0
  0
VERTEX
  5
16E
330
167
100
AcDbEntity
  8
Layer 1
 62
   252
420
 10000536
370
    25
100
AcDbVertex
100
AcDb2dVertex
 10
117.1505492594872
 20
-151.9188203426124
 30
0.0
  0
VERTEX
  5
16F
330
167
100
AcDbEntity
  8
Layer 1
 62
   252
420
 10000536
370
    25
100
AcDbVertex
100
AcDb2dVertex
 10
119.0784259648426
 20
-151.9029728929258
 30
0.0
  0
VERTEX
  5
170
330
167
100
AcDbEntity
  8
Layer 1
 62
   252
420
 10000536
370
    25
100
AcDbVertex
100
AcDb2dVertex
 10
121.0779607035635
 20
-151.8888479921181
 30
0.0
  0
VERTEX
  5
171
330
167
100
AcDbEntity
  8
Layer 1
 62
   252
420
 10000536
370
    25
100
AcDbVertex
100
AcDb2dVertex
 10
123.1377846530488
 20
-151.8757566206378
 30
0.0
  0
VERTEX
  5
172
330
167
100
AcDbEntity
  8
Layer 1
 62
   252
420
 10000536
370
    25
100
AcDbVertex
100
AcDb2dVertex
 10
125.2448064418182
 20
-151.8640432882608
 30
0.0
  0
VERTEX
  5
173
330
167
100
AcDbEntity
  8
Layer 1
 62
   252
420
 10000536
370
    25
100
AcDbVertex
100
AcDb2dVertex
 10
127.3876572472704
 20
-151.8533634852111
 30
0.0
  0
SEQEND
  5
174
330
167
100
AcDbEntity
  8
Layer 1
370
    25
  0
POLYLINE
  5
175
330
B5
100
AcDbEntity
  8
Layer 1
 62
   252
420
 10000536
370
    25
100
AcDb2dPolyline
 66
     1
 10
0.0
 20
0.0
 30
0.0
  0
VERTEX
  5
176
330
175
100
AcDbEntity
  8
Layer 1
 62
   252
420
 10000536
370
    25
100
AcDbVertex
100
AcDb2dVertex
 10
103.13089618835
 20
-151.6707733040391
 30
0.0
  0
VERTEX
  5
177
330
175
100
AcDbEntity
  8
Layer 1
 62
   252
420
 10000536
370
    25
100
AcDbVertex
100
AcDb2dVertex
 10
104.9352661390825
 20
-151.645624090406
 30
0.0
  0
SEQEND
  5
178
330
175
100
AcDbEntity
  8
Layer 1
370
    25
  0
POLYLINE
  5
179
330
B5
100
AcDbEntity
  8
Layer 1
 62
   252
420
 10000536
370
    25
100
AcDb2dPolyline
 66
     1
 10
0.0
 20
0.0
 30
0.0
  0
VERTEX
  5
17A
330
179
100
AcDbEntity
  8
Layer 1
 62
   252
420
 10000536
370
    25
100
AcDbVertex
100
AcDb2dVertex
 10
104.9352661390825
 20
-151.645624090406
 30
0.0
  0
VERTEX
  5
17B
330
179
100
AcDbEntity
  8
Layer 1
 62
   252
420
 10000536
370
    25
100
AcDbVertex
100
AcDb2dVertex
 10
106.7449759913397
 20
-151.6225419354277
 30
0.0
  0
SEQEND
  5
17C
330
179
100
AcDbEntity
  8
Layer 1
370
    25
  0
POLYLINE
  5
17D
330
B5
100
AcDbEntity
  8
Layer 1
 62
   252
420
 10000536
370
    25
100
AcDb2dPolyline
 66
     1
 10
0.0
 20
0.0
 30
0.0
  0
VERTEX
  5
17E
330
17D
100
AcDbEntity
  8
Layer 1
 62
   252
420
 10000536
370
    25
100
AcDbVertex
100
AcDb2dVertex
 10
106.7449759913397
 20
-151.6225419354277
 30
0.0
  0
VERTEX
  5
17F
330
17D
100
AcDbEntity
  8
Layer 1
 62
   252
420
 10000536
370
    25
100
AcDbVertex
100
AcDb2dVertex
 10
109.1341512864862
 20
-151.596703702243
 30
0.0
  0
SEQEND
  5
180
330
17D
100
AcDbEntity
  8
Layer 1
370
    25
  0
POLYLINE
  5
181
330
B5
100
AcDbEntity
  8
Layer 1
 62
   252
420
 10000536
370
    25
100
AcDb2dPolyline
 66
     1
 10
0.0
 20
0.0
 30
0.0
  0
VERTEX
  5
182
330
181
100
AcDbEntity
  8
Layer 1
 62
   252
420
 10000536
370
    25
100
AcDbVertex
100
AcDb2dVertex
 10
109.1341512864862
 20
-151.596703702243
 30
0.0
  0
VERTEX
  5
183
330
181
100
AcDbEntity
  8
Layer 1
 62
   252
420
 10000536
370
    25
100
AcDbVertex
100
AcDb2dVertex
 10
112.0480149701702
 20
-151.5701764495066
 30
0.0
  0
VERTEX
  5
184
330
181
100
AcDbEntity
  8
Layer 1
 62
   252
420
 10000536
370
    25
100
AcDbVertex
100
AcDb2dVertex
 10
113.680991307444
 20
-151.5574295878022
 30
0.0
  0
VERTEX
  5
185
330
181
100
AcDbEntity
  8
Layer 1
 62
   252
420
 10000536
370
    25
100
AcDbVertex
100
AcDb2dVertex
 10
115.4186986165599
 20
-151.5450272358735
 30
0.0
  0
VERTEX
  5
186
330
181
100
AcDbEntity
  8
Layer 1
 62
   252
420
 10000536
370
    25
100
AcDbVertex
100
AcDb2dVertex
 10
117.2497680749165
 20
-151.5340029230481
 30
0.0
  0
SEQEND
  5
187
330
181
100
AcDbEntity
  8
Layer 1
370
    25
  0
POLYLINE
  5
188
330
B5
100
AcDbEntity
  8
Layer 1
 62
   252
420
 10000536
370
    25
100
AcDb2dPolyline
 66
     1
 10
0.0
 20
0.0
 30
0.0
  0
VERTEX
  5
189
330
188
100
AcDbEntity
  8
Layer 1
 62
   252
420
 10000536
370
    25
100
AcDbVertex
100
AcDb2dVertex
 10
117.2497680749165
 20
-151.5340029230481
 30
0.0
  0
VERTEX
  5
18A
330
188
100
AcDbEntity
  8
Layer 1
 62
   252
420
 10000536
370
    25
100
AcDbVertex
100
AcDb2dVertex
 10
121.1503077564807
 20
-151.5140213560519
 30
0.0
  0
SEQEND
  5
18B
330
188
100
AcDbEntity
  8
Layer 1
370
    25
  0
POLYLINE
  5
18C
330
B5
100
AcDbEntity
  8
Layer 1
 62
   252
420
 10000536
370
    25
100
AcDb2dPolyline
 66
     1
 10
0.0
 20
0.0
 30
0.0
  0
VERTEX
  5
18D
330
18C
100
AcDbEntity
  8
Layer 1
 62
   252
420
 10000536
370
    25
100
AcDbVertex
100
AcDb2dVertex
 10
127.3876572472704
 20
-151.8533634852111
 30
0.0
  0
VERTEX
  5
18E
330
18C
100
AcDbEntity
  8
Layer 1
 62
   252
420
 10000536
370
    25
100
AcDbVertex
100
AcDb2dVertex
 10
131.7295139516295
 20
-151.8364825061971
 30
0.0
  0
SEQEND
  5
18F
330
18C
100
AcDbEntity
  8
Layer 1
370
    25
  0
POLYLINE
  5
190
330
B5
100
AcDbEntity
  8
Layer 1
 62
   252
420
 10000536
370
    25
100
AcDb2dPolyline
 66
     1
 10
0.0
 20
0.0
 30
0.0
  0
VERTEX
  5
191
330
190
100
AcDbEntity
  8
Layer 1
 62
   252
420
 10000536
370
    25
100
AcDbVertex
100
AcDb2dVertex
 10
121.1503077564807
 20
-151.5140213560519
 30
0.0
  0
VERTEX
  5
192
330
190
100
AcDbEntity
  8
Layer 1
 62
   252
420
 10000536
370
    25
100
AcDbVertex
100
AcDb2dVertex
 10
125.2882146735685
 20
-151.4985184161411
 30
0.0
  0
SEQEND
  5
193
330
190
100
AcDbEntity
  8
Layer 1
370
    25
  0
POLYLINE
  5
194
330
B5
100
AcDbEntity
  8
Layer 1
 62
   252
420
 10000536
370
    25
100
AcDb2dPolyline
 66
     1
 10
0.0
 20
0.0
 30
0.0
  0
VERTEX
  5
195
330
194
100
AcDbEntity
  8
Layer 1
 62
   252
420
 10000536
370
    25
100
AcDbVertex
100
AcDb2dVertex
 10
125.2882146735685
 20
-151.4985184161411
 30
0.0
  0
VERTEX
  5
196
330
194
100
AcDbEntity
  8
Layer 1
 62
   252
420
 10000536
370
    25
100
AcDbVertex
100
AcDb2dVertex
 10
129.5659925596295
 20
-151.4871495935398
 30
0.0
  0
VERTEX
  5
197
330
194
100
AcDbEntity
  8
Layer 1
 62
   252
420
 10000536
370
    25
100
AcDbVertex
100
AcDb2dVertex
 10
131.7267578734231
 20
-151.4826709664544
 30
0.0
  0
SEQEND
  5
198
330
194
100
AcDbEntity
  8
Layer 1
370
    25
  0
POLYLINE
  5
199
330
B5
100
AcDbEntity
  8
Layer 1
 62
   252
420
 10000536
370
    25
100
AcDb2dPolyline
 66
     1
 10
0.0
 20
0.0
 30
0.0
  0
VERTEX
  5
19A
330
199
100
AcDbEntity
  8
Layer 1
 62
   252
420
 10000536
370
    25
100
AcDbVertex
100
AcDb2dVertex
 10
162.4532402669076
 20
-153.6055402049104
 30
0.0
  0
VERTEX
  5
19B
330
199
100
AcDbEntity
  8
Layer 1
 62
   252
420
 10000536
370
    25
100
AcDbVertex
100
AcDb2dVertex
 10
101.1690852700787
 20
-153.6055402049104
 30
0.0
  0
SEQEND
  5
19C
330
199
100
AcDbEntity
  8
Layer 1
370
    25
  0
POLYLINE
  5
19D
330
B5
100
AcDbEntity
  8
Layer 1
 62
   252
420
 10000536
370
    25
100
AcDb2dPolyline
 66
     1
 10
0.0
 20
0.0
 30
0.0
  0
VERTEX
  5
19E
330
19D
100
AcDbEntity
  8
Layer 1
 62
   252
420
 10000536
370
    25
100
AcDbVertex
100
AcDb2dVertex
 10
162.0446516728134
 20
-152.8979171254251
 30
0.0
  0
VERTEX
  5
19F
330
19D
100
AcDbEntity
  8
Layer 1
 62
   252
420
 10000536
370
    25
100
AcDbVertex
100
AcDb2dVertex
 10
101.5775016092851
 20
-152.8979171254251
 30
0.0
  0
SEQEND
  5
1A0
330
19D
100
AcDbEntity
  8
Layer 1
370
    25
  0
POLYLINE
  5
1A1
330
B5
100
AcDbEntity
  8
Layer 1
 62
   252
420
 10000536
370
    25
100
AcDb2dPolyline
 66
     1
 10
0.0
 20
0.0
 30
0.0
  0
VERTEX
  5
1A2
330
1A1
100
AcDbEntity
  8
Layer 1
 62
   252
420
 10000536
370
    25
100
AcDbVertex
100
AcDb2dVertex
 10
131.7295139516295
 20
-151.8364825061971
 30
0.0
  0
VERTEX
  5
1A3
330
1A1
100
AcDbEntity
  8
Layer 1
 62
   252
420
 10000536
370
    25
100
AcDbVertex
100
AcDb2dVertex
 10
160.206347509165
 20
-151.8364825061971
 30
0.0
  0
SEQEND
  5
1A4
330
1A1
100
AcDbEntity
  8
Layer 1
370
    25
  0
POLYLINE
  5
1A5
330
B5
100
AcDbEntity
  8
Layer 1
 62
   252
420
 10000536
370
    25
100
AcDb2dPolyline
 66
     1
 10
0.0
 20
0.0
 30
0.0
  0
VERTEX
  5
1A6
330
1A5
100
AcDbEntity
  8
Layer 1
 62
   252
420
 10000536
370
    25
100
AcDbVertex
100
AcDb2dVertex
 10
131.7315810102843
 20
-151.4826709664544
 30
0.0
  0
VERTEX
  5
1A7
330
1A5
100
AcDbEntity
  8
Layer 1
 62
   252
420
 10000536
370
    25
100
AcDbVertex
100
AcDb2dVertex
 10
160.0020532121179
 20
-151.4826709664544
 30
0.0
  0
SEQEND
  5
1A8
330
1A5
100
AcDbEntity
  8
Layer 1
370
    25
  0
POLYLINE
  5
1A9
330
B5
100
AcDbEntity
  8
Layer 1
 62
   252
420
 10000536
370
    25
100
AcDb2dPolyline
 66
     1
 10
0.0
 20
0.0
 30
0.0
  0
VERTEX
  5
1AA
330
1A9
100
AcDbEntity
  8
Layer 1
 62
   252
420
 10000536
370
    25
100
AcDbVertex
100
AcDb2dVertex
 10
105.7724248942671
 20
-79.6093189909787
 30
0.0
  0
VERTEX
  5
1AB
330
1A9
100
AcDbEntity
  8
Layer 1
 62
   252
420
 10000536
370
    25
100
AcDbVertex
100
AcDb2dVertex
 10
105.6728615690621
 20
-79.67822094613793
 30
0.0
  0
VERTEX
  5
1AC
330
1A9
100
AcDbEntity
  8
Layer 1
 62
   252
420
 10000536
370
    25
100
AcDbVertex
100
AcDb2dVertex
 10
105.5329906000888
 20
-79.73627084335959
 30
0.0
  0
VERTEX
  5
1AD
330
1A9
100
AcDbEntity
  8
Layer 1
 62
   252
420
 10000536
370
    25
100
AcDbVertex
100
AcDb2dVertex
 10
105.3684871821461
 20
-79.77675074201564
 30
0.0
  0
VERTEX
  5
1AE
330
1A9
100
AcDbEntity
  8
Layer 1
 62
   252
420
 10000536
370
    25
100
AcDbVertex
100
AcDb2dVertex
 10
105.1960600393602
 20
-79.79914387744239
 30
0.0
  0
VERTEX
  5
1AF
330
1A9
100
AcDbEntity
  8
Layer 1
 62
   252
420
 10000536
370
    25
100
AcDbVertex
100
AcDb2dVertex
 10
105.0270779943321
 20
-79.80603407295831
 30
0.0
  0
VERTEX
  5
1B0
330
1A9
100
AcDbEntity
  8
Layer 1
 62
   252
420
 10000536
370
    25
100
AcDbVertex
100
AcDb2dVertex
 10
104.8668809485869
 20
-79.80017740676978
 30
0.0
  0
VERTEX
  5
1B1
330
1A9
100
AcDbEntity
  8
Layer 1
 62
   252
420
 10000536
370
    25
100
AcDbVertex
100
AcDb2dVertex
 10
104.7137463532455
 20
-79.78432995708314
 30
0.0
  0
VERTEX
  5
1B2
330
1A9
100
AcDbEntity
  8
Layer 1
 62
   252
420
 10000536
370
    25
100
AcDbVertex
100
AcDb2dVertex
 10
104.5681909729716
 20
-79.75935299833793
 30
0.0
  0
VERTEX
  5
1B3
330
1A9
100
AcDbEntity
  8
Layer 1
 62
   252
420
 10000536
370
    25
100
AcDbVertex
100
AcDb2dVertex
 10
104.4319373566443
 20
-79.7267968245252
 30
0.0
  0
VERTEX
  5
1B4
330
1A9
100
AcDbEntity
  8
Layer 1
 62
   252
420
 10000536
370
    25
100
AcDbVertex
100
AcDb2dVertex
 10
104.3061912884787
 20
-79.68700594542074
 30
0.0
  0
SEQEND
  5
1B5
330
1A9
100
AcDbEntity
  8
Layer 1
370
    25
  0
POLYLINE
  5
1B6
330
B5
100
AcDbEntity
  8
Layer 1
 62
     7
420
 16777215
370
    25
100
AcDb2dPolyline
 66
     1
 10
0.0
 20
0.0
 30
0.0
  0
VERTEX
  5
1B7
330
1B6
100
AcDbEntity
  8
Layer 1
 62
     7
420
 16777215
370
    25
100
AcDbVertex
100
AcDb2dVertex
 10
64.45002758150778
 20
-132.8016283739072
 30
0.0
  0
VERTEX
  5
1B8
330
1B6
100
AcDbEntity
  8
Layer 1
 62
     7
420
 16777215
370
    25
100
AcDbVertex
100
AcDb2dVertex
 10
64.98591253775872
 20
-132.0028824587237
 30
0.0
  0
SEQEND
  5
1B9
330
1B6
100
AcDbEntity
  8
Layer 1
370
    25
  0
POLYLINE
  5
1BA
330
B5
100
AcDbEntity
  8
Layer 1
 62
   252
420
 10000536
370
    25
100
AcDb2dPolyline
 66
     1
 10
0.0
 20
0.0
 30
0.0
  0
VERTEX
  5
1BB
330
1BA
100
AcDbEntity
  8
Layer 1
 62
   252
420
 10000536
370
    25
100
AcDbVertex
100
AcDb2dVertex
 10
87.9536902705377
 20
-73.44655586664894
 30
0.0
  0
VERTEX
  5
1BC
330
1BA
100
AcDbEntity
  8
Layer 1
 62
   252
420
 10000536
370
    25
100
AcDbVertex
100
AcDb2dVertex
 10
87.92974684111987
 20
-75.46624442725397
 30
0.0
  0
SEQEND
  5
1BD
330
1BA
100
AcDbEntity
  8
Layer 1
370
    25
  0
POLYLINE
  5
1BE
330
B5
100
AcDbEntity
  8
Layer 1
 62
   252
420
 10000536
370
    25
100
AcDb2dPolyline
 66
     1
 10
0.0
 20
0.0
 30
0.0
  0
VERTEX
  5
1BF
330
1BE
100
AcDbEntity
  8
Layer 1
 62
   252
420
 10000536
370
    25
100
AcDbVertex
100
AcDb2dVertex
 10
87.92974684111987
 20
-75.46624442725397
 30
0.0
  0
VERTEX
  5
1C0
330
1BE
100
AcDbEntity
  8
Layer 1
 62
   252
420
 10000536
370
    25
100
AcDbVertex
100
AcDb2dVertex
 10
87.90373635304726
 20
-77.369316428752
 30
0.0
  0
SEQEND
  5
1C1
330
1BE
100
AcDbEntity
  8
Layer 1
370
    25
  0
POLYLINE
  5
1C2
330
B5
100
AcDbEntity
  8
Layer 1
 62
   252
420
 10000536
370
    25
100
AcDb2dPolyline
 66
     1
 10
0.0
 20
0.0
 30
0.0
  0
VERTEX
  5
1C3
330
1C2
100
AcDbEntity
  8
Layer 1
 62
   252
420
 10000536
370
    25
100
AcDbVertex
100
AcDb2dVertex
 10
87.68049401833134
 20
-73.23933323650753
 30
0.0
  0
VERTEX
  5
1C4
330
1C2
100
AcDbEntity
  8
Layer 1
 62
   252
420
 10000536
370
    25
100
AcDbVertex
100
AcDb2dVertex
 10
87.65069392272497
 20
-75.27297444303233
 30
0.0
  0
SEQEND
  5
1C5
330
1C2
100
AcDbEntity
  8
Layer 1
370
    25
  0
POLYLINE
  5
1C6
330
B5
100
AcDbEntity
  8
Layer 1
 62
   252
420
 10000536
370
    25
100
AcDb2dPolyline
 66
     1
 10
0.0
 20
0.0
 30
0.0
  0
VERTEX
  5
1C7
330
1C6
100
AcDbEntity
  8
Layer 1
 62
   252
420
 10000536
370
    25
100
AcDbVertex
100
AcDb2dVertex
 10
87.90373635304726
 20
-77.369316428752
 30
0.0
  0
VERTEX
  5
1C8
330
1C6
100
AcDbEntity
  8
Layer 1
 62
   252
420
 10000536
370
    25
100
AcDbVertex
100
AcDb2dVertex
 10
87.8649790032702
 20
-79.85064808892392
 30
0.0
  0
VERTEX
  5
1C9
330
1C6
100
AcDbEntity
  8
Layer 1
 62
   252
420
 10000536
370
    25
100
AcDbVertex
100
AcDb2dVertex
 10
87.84051880918867
 20
-81.29259375551878
 30
0.0
  0
VERTEX
  5
1CA
330
1C6
100
AcDbEntity
  8
Layer 1
 62
   252
420
 10000536
370
    25
100
AcDbVertex
100
AcDb2dVertex
 10
87.81175224290968
 20
-82.85907970606395
 30
0.0
  0
VERTEX
  5
1CB
330
1C6
100
AcDbEntity
  8
Layer 1
 62
   252
420
 10000536
370
    25
100
AcDbVertex
100
AcDb2dVertex
 10
87.77850704954535
 20
-84.54080417661295
 30
0.0
  0
VERTEX
  5
1CC
330
1C6
100
AcDbEntity
  8
Layer 1
 62
   252
420
 10000536
370
    25
100
AcDbVertex
100
AcDb2dVertex
 10
87.74112773887147
 20
-86.32846540321928
 30
0.0
  0
VERTEX
  5
1CD
330
1C6
100
AcDbEntity
  8
Layer 1
 62
   252
420
 10000536
370
    25
100
AcDbVertex
100
AcDb2dVertex
 10
87.69892529133644
 20
-88.21155583772114
 30
0.0
  0
VERTEX
  5
1CE
330
1C6
100
AcDbEntity
  8
Layer 1
 62
   252
420
 10000536
370
    25
100
AcDbVertex
100
AcDb2dVertex
 10
87.65155519716447
 20
-90.17905116729305
 30
0.0
  0
VERTEX
  5
1CF
330
1C6
100
AcDbEntity
  8
Layer 1
 62
   252
420
 10000536
370
    25
100
AcDbVertex
100
AcDb2dVertex
 10
87.59953422101924
 20
-92.21923805955797
 30
0.0
  0
VERTEX
  5
1D0
330
1C6
100
AcDbEntity
  8
Layer 1
 62
   252
420
 10000536
370
    25
100
AcDbVertex
100
AcDb2dVertex
 10
87.54286236290078
 20
-94.31902514303562
 30
0.0
  0
VERTEX
  5
1D1
330
1C6
100
AcDbEntity
  8
Layer 1
 62
   252
420
 10000536
370
    25
100
AcDbVertex
100
AcDb2dVertex
 10
87.48119511303325
 20
-96.46583781090945
 30
0.0
  0
VERTEX
  5
1D2
330
1C6
100
AcDbEntity
  8
Layer 1
 62
   252
420
 10000536
370
    25
100
AcDbVertex
100
AcDb2dVertex
 10
87.41591051051988
 20
-98.64692920147499
 30
0.0
  0
VERTEX
  5
1D3
330
1C6
100
AcDbEntity
  8
Layer 1
 62
   252
420
 10000536
370
    25
100
AcDbVertex
100
AcDb2dVertex
 10
87.34614728092116
 20
-100.8478299041488
 30
0.0
  0
SEQEND
  5
1D4
330
1C6
100
AcDbEntity
  8
Layer 1
370
    25
  0
POLYLINE
  5
1D5
330
B5
100
AcDbEntity
  8
Layer 1
 62
   252
420
 10000536
370
    25
100
AcDb2dPolyline
 66
     1
 10
0.0
 20
0.0
 30
0.0
  0
VERTEX
  5
1D6
330
1D5
100
AcDbEntity
  8
Layer 1
 62
   252
420
 10000536
370
    25
100
AcDbVertex
100
AcDb2dVertex
 10
87.65069392272497
 20
-75.27297444303233
 30
0.0
  0
VERTEX
  5
1D7
330
1D5
100
AcDbEntity
  8
Layer 1
 62
   252
420
 10000536
370
    25
100
AcDbVertex
100
AcDb2dVertex
 10
87.61951578801542
 20
-77.1894823257864
 30
0.0
  0
SEQEND
  5
1D8
330
1D5
100
AcDbEntity
  8
Layer 1
370
    25
  0
POLYLINE
  5
1D9
330
B5
100
AcDbEntity
  8
Layer 1
 62
   252
420
 10000536
370
    25
100
AcDb2dPolyline
 66
     1
 10
0.0
 20
0.0
 30
0.0
  0
VERTEX
  5
1DA
330
1D9
100
AcDbEntity
  8
Layer 1
 62
   252
420
 10000536
370
    25
100
AcDbVertex
100
AcDb2dVertex
 10
87.61951578801542
 20
-77.1894823257864
 30
0.0
  0
VERTEX
  5
1DB
330
1D9
100
AcDbEntity
  8
Layer 1
 62
   252
420
 10000536
370
    25
100
AcDbVertex
100
AcDb2dVertex
 10
87.57386824272243
 20
-79.68786721986022
 30
0.0
  0
VERTEX
  5
1DC
330
1D9
100
AcDbEntity
  8
Layer 1
 62
   252
420
 10000536
370
    25
100
AcDbVertex
100
AcDb2dVertex
 10
87.54544618621924
 20
-81.13945916017738
 30
0.0
  0
VERTEX
  5
1DD
330
1D9
100
AcDbEntity
  8
Layer 1
 62
   252
420
 10000536
370
    25
100
AcDbVertex
100
AcDb2dVertex
 10
87.51220099285491
 20
-82.71662491377224
 30
0.0
  0
VERTEX
  5
1DE
330
1D9
100
AcDbEntity
  8
Layer 1
 62
   252
420
 10000536
370
    25
100
AcDbVertex
100
AcDb2dVertex
 10
87.47447717240523
 20
-84.4098904618104
 30
0.0
  0
VERTEX
  5
1DF
330
1D9
100
AcDbEntity
  8
Layer 1
 62
   252
420
 10000536
370
    25
100
AcDbVertex
100
AcDb2dVertex
 10
87.43175796020651
 20
-86.2097817854575
 30
0.0
  0
VERTEX
  5
1E0
330
1D9
100
AcDbEntity
  8
Layer 1
 62
   252
420
 10000536
370
    25
100
AcDbVertex
100
AcDb2dVertex
 10
87.38387110137084
 20
-88.10544682677592
 30
0.0
  0
VERTEX
  5
1E1
330
1D9
100
AcDbEntity
  8
Layer 1
 62
   252
420
 10000536
370
    25
100
AcDbVertex
100
AcDb2dVertex
 10
87.33150561544983
 20
-90.08637803760388
 30
0.0
  0
VERTEX
  5
1E2
330
1D9
100
AcDbEntity
  8
Layer 1
 62
   252
420
 10000536
370
    25
100
AcDbVertex
100
AcDb2dVertex
 10
87.27380022800396
 20
-92.14000081112485
 30
0.0
  0
VERTEX
  5
1E3
330
1D9
100
AcDbEntity
  8
Layer 1
 62
   252
420
 10000536
370
    25
100
AcDbVertex
100
AcDb2dVertex
 10
87.21092719392117
 20
-94.25408505029804
 30
0.0
  0
VERTEX
  5
1E4
330
1D9
100
AcDbEntity
  8
Layer 1
 62
   252
420
 10000536
370
    25
100
AcDbVertex
100
AcDb2dVertex
 10
87.1437477876409
 20
-96.4155393836432
 30
0.0
  0
VERTEX
  5
1E5
330
1D9
100
AcDbEntity
  8
Layer 1
 62
   252
420
 10000536
370
    25
100
AcDbVertex
100
AcDb2dVertex
 10
87.07191749938741
 20
-98.61058342012849
 30
0.0
  0
VERTEX
  5
1E6
330
1D9
100
AcDbEntity
  8
Layer 1
 62
   252
420
 10000536
370
    25
100
AcDbVertex
100
AcDb2dVertex
 10
86.99629760360015
 20
-100.8266425529373
 30
0.0
  0
SEQEND
  5
1E7
330
1D9
100
AcDbEntity
  8
Layer 1
370
    25
  0
POLYLINE
  5
1E8
330
B5
100
AcDbEntity
  8
Layer 1
 62
   252
420
 10000536
370
    25
100
AcDb2dPolyline
 66
     1
 10
0.0
 20
0.0
 30
0.0
  0
VERTEX
  5
1E9
330
1E8
100
AcDbEntity
  8
Layer 1
 62
   252
420
 10000536
370
    25
100
AcDbVertex
100
AcDb2dVertex
 10
87.34614728092116
 20
-100.8478299041488
 30
0.0
  0
VERTEX
  5
1EA
330
1E8
100
AcDbEntity
  8
Layer 1
 62
   252
420
 10000536
370
    25
100
AcDbVertex
100
AcDb2dVertex
 10
87.29068120701798
 20
-102.539372903308
 30
0.0
  0
VERTEX
  5
1EB
330
1E8
100
AcDbEntity
  8
Layer 1
 62
   252
420
 10000536
370
    25
100
AcDbVertex
100
AcDb2dVertex
 10
87.22264052629824
 20
-104.5390798969169
 30
0.0
  0
VERTEX
  5
1EC
330
1E8
100
AcDbEntity
  8
Layer 1
 62
   252
420
 10000536
370
    25
100
AcDbVertex
100
AcDb2dVertex
 10
87.14857092450205
 20
-106.633010314206
 30
0.0
  0
VERTEX
  5
1ED
330
1E8
100
AcDbEntity
  8
Layer 1
 62
   252
420
 10000536
370
    25
100
AcDbVertex
100
AcDb2dVertex
 10
87.07002269562052
 20
-108.7505396511371
 30
0.0
  0
VERTEX
  5
1EE
330
1E8
100
AcDbEntity
  8
Layer 1
 62
   252
420
 10000536
370
    25
100
AcDbVertex
100
AcDb2dVertex
 10
86.98837387875683
 20
-110.8632458512071
 30
0.0
  0
VERTEX
  5
1EF
330
1E8
100
AcDbEntity
  8
Layer 1
 62
   252
420
 10000536
370
    25
100
AcDbVertex
100
AcDb2dVertex
 10
86.90448574835047
 20
-112.9313380353115
 30
0.0
  0
VERTEX
  5
1F0
330
1E8
100
AcDbEntity
  8
Layer 1
 62
   252
420
 10000536
370
    25
100
AcDbVertex
100
AcDb2dVertex
 10
86.81921957884092
 20
-114.9393132635395
 30
0.0
  0
VERTEX
  5
1F1
330
1E8
100
AcDbEntity
  8
Layer 1
 62
   252
420
 10000536
370
    25
100
AcDbVertex
100
AcDb2dVertex
 10
86.73309213489188
 20
-116.8766639877293
 30
0.0
  0
VERTEX
  5
1F2
330
1E8
100
AcDbEntity
  8
Layer 1
 62
   252
420
 10000536
370
    25
100
AcDbVertex
100
AcDb2dVertex
 10
86.64627567139124
 20
-118.7297820717368
 30
0.0
  0
VERTEX
  5
1F3
330
1E8
100
AcDbEntity
  8
Layer 1
 62
   252
420
 10000536
370
    25
100
AcDbVertex
100
AcDb2dVertex
 10
86.5601482274422
 20
-120.4878154576247
 30
0.0
  0
VERTEX
  5
1F4
330
1E8
100
AcDbEntity
  8
Layer 1
 62
   252
420
 10000536
370
    25
100
AcDbVertex
100
AcDb2dVertex
 10
86.47522656770845
 20
-122.1387063032399
 30
0.0
  0
VERTEX
  5
1F5
330
1E8
100
AcDbEntity
  8
Layer 1
 62
   252
420
 10000536
370
    25
100
AcDbVertex
100
AcDb2dVertex
 10
86.39271647640525
 20
-123.6731528446361
 30
0.0
  0
VERTEX
  5
1F6
330
1E8
100
AcDbEntity
  8
Layer 1
 62
   252
420
 10000536
370
    25
100
AcDbVertex
100
AcDb2dVertex
 10
86.31330697308424
 20
-125.0809920434271
 30
0.0
  0
VERTEX
  5
1F7
330
1E8
100
AcDbEntity
  8
Layer 1
 62
   252
420
 10000536
370
    25
100
AcDbVertex
100
AcDb2dVertex
 10
86.23872060662437
 20
-126.353955664994
 30
0.0
  0
VERTEX
  5
1F8
330
1E8
100
AcDbEntity
  8
Layer 1
 62
   252
420
 10000536
370
    25
100
AcDbVertex
100
AcDb2dVertex
 10
86.16964639657725
 20
-127.4868760626997
 30
0.0
  0
VERTEX
  5
1F9
330
1E8
100
AcDbEntity
  8
Layer 1
 62
   252
420
 10000536
370
    25
100
AcDbVertex
100
AcDb2dVertex
 10
86.10746238204604
 20
-128.4735520605799
 30
0.0
  0
SEQEND
  5
1FA
330
1E8
100
AcDbEntity
  8
Layer 1
370
    25
  0
POLYLINE
  5
1FB
330
B5
100
AcDbEntity
  8
Layer 1
 62
   252
420
 10000536
370
    25
100
AcDb2dPolyline
 66
     1
 10
0.0
 20
0.0
 30
0.0
  0
VERTEX
  5
1FC
330
1FB
100
AcDbEntity
  8
Layer 1
 62
   252
420
 10000536
370
    25
100
AcDbVertex
100
AcDb2dVertex
 10
84.1136120546257
 20
-132.6707146591046
 30
0.0
  0
VERTEX
  5
1FD
330
1FB
100
AcDbEntity
  8
Layer 1
 62
   252
420
 10000536
370
    25
100
AcDbVertex
100
AcDb2dVertex
 10
86.25215648788043
 20
-71.42359446317383
 30
0.0
  0
SEQEND
  5
1FE
330
1FB
100
AcDbEntity
  8
Layer 1
370
    25
  0
POLYLINE
  5
1FF
330
B5
100
AcDbEntity
  8
Layer 1
 62
   252
420
 10000536
370
    25
100
AcDb2dPolyline
 66
     1
 10
0.0
 20
0.0
 30
0.0
  0
VERTEX
  5
200
330
1FF
100
AcDbEntity
  8
Layer 1
 62
   252
420
 10000536
370
    25
100
AcDbVertex
100
AcDb2dVertex
 10
84.83501552514288
 20
-132.2871030237556
 30
0.0
  0
VERTEX
  5
201
330
1FF
100
AcDbEntity
  8
Layer 1
 62
   252
420
 10000536
370
    25
100
AcDbVertex
100
AcDb2dVertex
 10
86.94531015678231
 20
-71.85664325134961
 30
0.0
  0
SEQEND
  5
202
330
1FF
100
AcDbEntity
  8
Layer 1
370
    25
  0
POLYLINE
  5
203
330
B5
100
AcDbEntity
  8
Layer 1
 62
   252
420
 10000536
370
    25
100
AcDb2dPolyline
 66
     1
 10
0.0
 20
0.0
 30
0.0
  0
VERTEX
  5
204
330
203
100
AcDbEntity
  8
Layer 1
 62
   252
420
 10000536
370
    25
100
AcDbVertex
100
AcDb2dVertex
 10
86.99629760360015
 20
-100.8266425529373
 30
0.0
  0
VERTEX
  5
205
330
203
100
AcDbEntity
  8
Layer 1
 62
   252
420
 10000536
370
    25
100
AcDbVertex
100
AcDb2dVertex
 10
86.93600839283582
 20
-102.5290376100341
 30
0.0
  0
VERTEX
  5
206
330
203
100
AcDbEntity
  8
Layer 1
 62
   252
420
 10000536
370
    25
100
AcDbVertex
100
AcDb2dVertex
 10
86.86193879103965
 20
-104.5418359751232
 30
0.0
  0
VERTEX
  5
207
330
203
100
AcDbEntity
  8
Layer 1
 62
   252
420
 10000536
370
    25
100
AcDbVertex
100
AcDb2dVertex
 10
86.78080673883964
 20
-106.6497190383321
 30
0.0
  0
VERTEX
  5
208
330
203
100
AcDbEntity
  8
Layer 1
 62
   252
420
 10000536
370
    25
100
AcDbVertex
100
AcDb2dVertex
 10
86.69554056933009
 20
-108.7808565114072
 30
0.0
  0
VERTEX
  5
209
330
203
100
AcDbEntity
  8
Layer 1
 62
   252
420
 10000536
370
    25
100
AcDbVertex
100
AcDb2dVertex
 10
86.60596802762309
 20
-110.907343102509
 30
0.0
  0
VERTEX
  5
20A
330
203
100
AcDbEntity
  8
Layer 1
 62
   252
420
 10000536
370
    25
100
AcDbVertex
100
AcDb2dVertex
 10
86.51398391748552
 20
-112.9886989129816
 30
0.0
  0
VERTEX
  5
20B
330
203
100
AcDbEntity
  8
Layer 1
 62
   252
420
 10000536
370
    25
100
AcDbVertex
100
AcDb2dVertex
 10
86.42027725846896
 20
-115.0090764931382
 30
0.0
  0
VERTEX
  5
20C
330
203
100
AcDbEntity
  8
Layer 1
 62
   252
420
 10000536
370
    25
100
AcDbVertex
100
AcDb2dVertex
 10
86.32484805057342
 20
-116.9586573143688
 30
0.0
  0
VERTEX
  5
20D
330
203
100
AcDbEntity
  8
Layer 1
 62
   252
420
 10000536
370
    25
100
AcDbVertex
100
AcDb2dVertex
 10
86.22907433290209
 20
-118.8227997112018
 30
0.0
  0
VERTEX
  5
20E
330
203
100
AcDbEntity
  8
Layer 1
 62
   252
420
 10000536
370
    25
100
AcDbVertex
100
AcDb2dVertex
 10
86.13347287011864
 20
-120.5913406452514
 30
0.0
  0
VERTEX
  5
20F
330
203
100
AcDbEntity
  8
Layer 1
 62
   252
420
 10000536
370
    25
100
AcDbVertex
100
AcDb2dVertex
 10
86.03907719155049
 20
-122.2520500194769
 30
0.0
  0
VERTEX
  5
210
330
203
100
AcDbEntity
  8
Layer 1
 62
   252
420
 10000536
370
    25
100
AcDbVertex
100
AcDb2dVertex
 10
85.94726533630082
 20
-123.7951093052679
 30
0.0
  0
VERTEX
  5
211
330
203
100
AcDbEntity
  8
Layer 1
 62
   252
420
 10000536
370
    25
100
AcDbVertex
100
AcDb2dVertex
 10
85.8587263239212
 20
-125.2106999740144
 30
0.0
  0
VERTEX
  5
212
330
203
100
AcDbEntity
  8
Layer 1
 62
   252
420
 10000536
370
    25
100
AcDbVertex
100
AcDb2dVertex
 10
85.77501044840272
 20
-126.4908983008729
 30
0.0
  0
VERTEX
  5
213
330
203
100
AcDbEntity
  8
Layer 1
 62
   252
420
 10000536
370
    25
100
AcDbVertex
100
AcDb2dVertex
 10
85.6976680037365
 20
-127.6298476196551
 30
0.0
  0
VERTEX
  5
214
330
203
100
AcDbEntity
  8
Layer 1
 62
   252
420
 10000536
370
    25
100
AcDbVertex
100
AcDb2dVertex
 10
85.62773251924988
 20
-128.6215190092844
 30
0.0
  0
VERTEX
  5
215
330
203
100
AcDbEntity
  8
Layer 1
 62
   252
420
 10000536
370
    25
100
AcDbVertex
100
AcDb2dVertex
 10
85.56640977915815
 20
-129.4629841366665
 30
0.0
  0
SEQEND
  5
216
330
203
100
AcDbEntity
  8
Layer 1
370
    25
  0
POLYLINE
  5
217
330
B5
100
AcDbEntity
  8
Layer 1
 62
   252
420
 10000536
370
    25
100
AcDb2dPolyline
 66
     1
 10
0.0
 20
0.0
 30
0.0
  0
VERTEX
  5
218
330
217
100
AcDbEntity
  8
Layer 1
 62
   252
420
 10000536
370
    25
100
AcDbVertex
100
AcDb2dVertex
 10
86.10746238204604
 20
-128.4735520605799
 30
0.0
  0
VERTEX
  5
219
330
217
100
AcDbEntity
  8
Layer 1
 62
   252
420
 10000536
370
    25
100
AcDbVertex
100
AcDb2dVertex
 10
86.00789905684094
 20
-129.987844780092
 30
0.0
  0
SEQEND
  5
21A
330
217
100
AcDbEntity
  8
Layer 1
370
    25
  0
POLYLINE
  5
21B
330
B5
100
AcDbEntity
  8
Layer 1
 62
   252
420
 10000536
370
    25
100
AcDb2dPolyline
 66
     1
 10
0.0
 20
0.0
 30
0.0
  0
VERTEX
  5
21C
330
21B
100
AcDbEntity
  8
Layer 1
 62
   252
420
 10000536
370
    25
100
AcDbVertex
100
AcDb2dVertex
 10
86.00789905684094
 20
-129.987844780092
 30
0.0
  0
VERTEX
  5
21D
330
21B
100
AcDbEntity
  8
Layer 1
 62
   252
420
 10000536
370
    25
100
AcDbVertex
100
AcDb2dVertex
 10
85.92487220087406
 20
-131.1870833096384
 30
0.0
  0
SEQEND
  5
21E
330
21B
100
AcDbEntity
  8
Layer 1
370
    25
  0
POLYLINE
  5
21F
330
B5
100
AcDbEntity
  8
Layer 1
 62
   252
420
 10000536
370
    25
100
AcDb2dPolyline
 66
     1
 10
0.0
 20
0.0
 30
0.0
  0
VERTEX
  5
220
330
21F
100
AcDbEntity
  8
Layer 1
 62
   252
420
 10000536
370
    25
100
AcDbVertex
100
AcDb2dVertex
 10
85.56640977915815
 20
-129.4629841366665
 30
0.0
  0
VERTEX
  5
221
330
21F
100
AcDbEntity
  8
Layer 1
 62
   252
420
 10000536
370
    25
100
AcDbVertex
100
AcDb2dVertex
 10
85.47700949233905
 20
-130.6474087458537
 30
0.0
  0
SEQEND
  5
222
330
21F
100
AcDbEntity
  8
Layer 1
370
    25
  0
POLYLINE
  5
223
330
B5
100
AcDbEntity
  8
Layer 1
 62
   252
420
 10000536
370
    25
100
AcDb2dPolyline
 66
     1
 10
0.0
 20
0.0
 30
0.0
  0
VERTEX
  5
224
330
223
100
AcDbEntity
  8
Layer 1
 62
   252
420
 10000536
370
    25
100
AcDbVertex
100
AcDb2dVertex
 10
85.47700949233905
 20
-130.6474087458537
 30
0.0
  0
VERTEX
  5
225
330
223
100
AcDbEntity
  8
Layer 1
 62
   252
420
 10000536
370
    25
100
AcDbVertex
100
AcDb2dVertex
 10
85.42206018309956
 20
-131.3479693749352
 30
0.0
  0
SEQEND
  5
226
330
223
100
AcDbEntity
  8
Layer 1
370
    25
  0
POLYLINE
  5
227
330
B5
100
AcDbEntity
  8
Layer 1
 62
   252
420
 10000536
370
    25
100
AcDb2dPolyline
 66
     1
 10
0.0
 20
0.0
 30
0.0
  0
VERTEX
  5
228
330
227
100
AcDbEntity
  8
Layer 1
 62
   252
420
 10000536
370
    25
100
AcDbVertex
100
AcDb2dVertex
 10
87.34614728092116
 20
-100.8478299041488
 30
0.0
  0
VERTEX
  5
229
330
227
100
AcDbEntity
  8
Layer 1
 62
   252
420
 10000536
370
    25
100
AcDbVertex
100
AcDb2dVertex
 10
93.1066952420089
 20
-74.57620342148456
 30
0.0
  0
SEQEND
  5
22A
330
227
100
AcDbEntity
  8
Layer 1
370
    25
  0
POLYLINE
  5
22B
330
B5
100
AcDbEntity
  8
Layer 1
 62
     7
420
 16777215
370
    25
100
AcDb2dPolyline
 66
     1
 10
0.0
 20
0.0
 30
0.0
  0
VERTEX
  5
22C
330
22B
100
AcDbEntity
  8
Layer 1
 62
     7
420
 16777215
370
    25
100
AcDbVertex
100
AcDb2dVertex
 10
163.2704174550961
 20
-57.83940174864299
 30
0.0
  0
VERTEX
  5
22D
330
22B
100
AcDbEntity
  8
Layer 1
 62
     7
420
 16777215
370
    25
100
AcDbVertex
100
AcDb2dVertex
 10
162.4532402669076
 20
-58.34738141305444
 30
0.0
  0
SEQEND
  5
22E
330
22B
100
AcDbEntity
  8
Layer 1
370
    25
  0
POLYLINE
  5
22F
330
B5
100
AcDbEntity
  8
Layer 1
 62
     7
420
 16777215
370
    25
100
AcDb2dPolyline
 66
     1
 10
0.0
 20
0.0
 30
0.0
  0
VERTEX
  5
230
330
22F
100
AcDbEntity
  8
Layer 1
 62
     7
420
 16777215
370
    25
100
AcDbVertex
100
AcDb2dVertex
 10
52.30002906361639
 20
-131.9815228526244
 30
0.0
  0
VERTEX
  5
231
330
22F
100
AcDbEntity
  8
Layer 1
 62
     7
420
 16777215
370
    25
100
AcDbVertex
100
AcDb2dVertex
 10
64.45002758150778
 20
-132.8016283739072
 30
0.0
  0
SEQEND
  5
232
330
22F
100
AcDbEntity
  8
Layer 1
370
    25
  0
POLYLINE
  5
233
330
B5
100
AcDbEntity
  8
Layer 1
 62
   252
420
 10000536
370
    25
100
AcDb2dPolyline
 66
     1
 10
0.0
 20
0.0
 30
0.0
  0
VERTEX
  5
234
330
233
100
AcDbEntity
  8
Layer 1
 62
   252
420
 10000536
370
    25
100
AcDbVertex
100
AcDb2dVertex
 10
102.0312209840087
 20
-77.4866220074106
 30
0.0
  0
VERTEX
  5
235
330
233
100
AcDbEntity
  8
Layer 1
 62
   252
420
 10000536
370
    25
100
AcDbVertex
100
AcDb2dVertex
 10
102.013823240331
 20
-77.57309396113544
 30
0.0
  0
VERTEX
  5
236
330
233
100
AcDbEntity
  8
Layer 1
 62
   252
420
 10000536
370
    25
100
AcDbVertex
100
AcDb2dVertex
 10
101.9773052040966
 20
-77.65525954266283
 30
0.0
  0
VERTEX
  5
237
330
233
100
AcDbEntity
  8
Layer 1
 62
   252
420
 10000536
370
    25
100
AcDbVertex
100
AcDb2dVertex
 10
101.9233894241844
 20
-77.72864012490741
 30
0.0
  0
VERTEX
  5
238
330
233
100
AcDbEntity
  8
Layer 1
 62
   252
420
 10000536
370
    25
100
AcDbVertex
100
AcDb2dVertex
 10
101.8544874690252
 20
-77.78996286499913
 30
0.0
  0
VERTEX
  5
239
330
233
100
AcDbEntity
  8
Layer 1
 62
   252
420
 10000536
370
    25
100
AcDbVertex
100
AcDb2dVertex
 10
101.7742166912647
 20
-77.83543815540422
 30
0.0
  0
VERTEX
  5
23A
330
233
100
AcDbEntity
  8
Layer 1
 62
   252
420
 10000536
370
    25
100
AcDbVertex
100
AcDb2dVertex
 10
101.6872279728762
 20
-77.86334344724371
 30
0.0
  0
VERTEX
  5
23B
330
233
100
AcDbEntity
  8
Layer 1
 62
   252
420
 10000536
370
    25
100
AcDbVertex
100
AcDb2dVertex
 10
101.5974831762813
 20
-77.87230070141442
 30
0.0
  0
VERTEX
  5
23C
330
233
100
AcDbEntity
  8
Layer 1
 62
   252
420
 10000536
370
    25
100
AcDbVertex
100
AcDb2dVertex
 10
101.5091164187896
 20
-77.86144864347683
 30
0.0
  0
SEQEND
  5
23D
330
233
100
AcDbEntity
  8
Layer 1
370
    25
  0
POLYLINE
  5
23E
330
B5
100
AcDbEntity
  8
Layer 1
 62
     7
420
 16777215
370
    25
100
AcDb2dPolyline
 66
     1
 10
0.0
 20
0.0
 30
0.0
  0
VERTEX
  5
23F
330
23E
100
AcDbEntity
  8
Layer 1
 62
     7
420
 16777215
370
    25
100
AcDbVertex
100
AcDb2dVertex
 10
66.64576063754465
 20
-69.92135958581463
 30
0.0
  0
VERTEX
  5
240
330
23E
100
AcDbEntity
  8
Layer 1
 62
     7
420
 16777215
370
    25
100
AcDbVertex
100
AcDb2dVertex
 10
67.12480148078923
 20
-70.75559000790506
 30
0.0
  0
SEQEND
  5
241
330
23E
100
AcDbEntity
  8
Layer 1
370
    25
  0
POLYLINE
  5
242
330
B5
100
AcDbEntity
  8
Layer 1
 62
     7
420
 16777215
370
    25
100
AcDb2dPolyline
 66
     1
 10
0.0
 20
0.0
 30
0.0
  0
VERTEX
  5
243
330
242
100
AcDbEntity
  8
Layer 1
 62
     7
420
 16777215
370
    25
100
AcDbVertex
100
AcDb2dVertex
 10
101.1690852700787
 20
-186.6361039789197
 30
0.0
  0
VERTEX
  5
244
330
242
100
AcDbEntity
  8
Layer 1
 62
     7
420
 16777215
370
    25
100
AcDbVertex
100
AcDb2dVertex
 10
101.1690852700787
 20
-195.1427393628787
 30
0.0
  0
SEQEND
  5
245
330
242
100
AcDbEntity
  8
Layer 1
370
    25
  0
POLYLINE
  5
246
330
B5
100
AcDbEntity
  8
Layer 1
 62
     7
420
 16777215
370
    25
100
AcDb2dPolyline
 66
     1
 10
0.0
 20
0.0
 30
0.0
  0
VERTEX
  5
247
330
246
100
AcDbEntity
  8
Layer 1
 62
     7
420
 16777215
370
    25
100
AcDbVertex
100
AcDb2dVertex
 10
100.7475775593921
 20
-45.66856038931594
 30
0.0
  0
VERTEX
  5
248
330
246
100
AcDbEntity
  8
Layer 1
 62
     7
420
 16777215
370
    25
100
AcDbVertex
100
AcDb2dVertex
 10
100.3517358270023
 20
-57.83940174864299
 30
0.0
  0
SEQEND
  5
249
330
246
100
AcDbEntity
  8
Layer 1
370
    25
  0
POLYLINE
  5
24A
330
B5
100
AcDbEntity
  8
Layer 1
 62
   252
420
 10000536
370
    25
100
AcDb2dPolyline
 66
     1
 10
0.0
 20
0.0
 30
0.0
  0
VERTEX
  5
24B
330
24A
100
AcDbEntity
  8
Layer 1
 62
   252
420
 10000536
370
    25
100
AcDbVertex
100
AcDb2dVertex
 10
104.6333033205971
 20
-78.97404296441056
 30
0.0
  0
VERTEX
  5
24C
330
24A
100
AcDbEntity
  8
Layer 1
 62
   252
420
 10000536
370
    25
100
AcDbVertex
100
AcDb2dVertex
 10
104.6417438101041
 20
-79.00935521642967
 30
0.0
  0
VERTEX
  5
24D
330
24A
100
AcDbEntity
  8
Layer 1
 62
   252
420
 10000536
370
    25
100
AcDbVertex
100
AcDb2dVertex
 10
104.6388154770099
 20
-79.06223746701438
 30
0.0
  0
VERTEX
  5
24E
330
24A
100
AcDbEntity
  8
Layer 1
 62
   252
420
 10000536
370
    25
100
AcDbVertex
100
AcDb2dVertex
 10
104.625035085978
 20
-79.12976138307043
 30
0.0
  0
VERTEX
  5
24F
330
24A
100
AcDbEntity
  8
Layer 1
 62
   252
420
 10000536
370
    25
100
AcDbVertex
100
AcDb2dVertex
 10
104.6009194016723
 20
-79.20848186683986
 30
0.0
  0
VERTEX
  5
250
330
24A
100
AcDbEntity
  8
Layer 1
 62
   252
420
 10000536
370
    25
100
AcDbVertex
100
AcDb2dVertex
 10
104.5676742083079
 20
-79.2940925461252
 30
0.0
  0
VERTEX
  5
251
330
24A
100
AcDbEntity
  8
Layer 1
 62
   252
420
 10000536
370
    25
100
AcDbVertex
100
AcDb2dVertex
 10
104.5277110743156
 20
-79.38108126451374
 30
0.0
  0
VERTEX
  5
252
330
24A
100
AcDbEntity
  8
Layer 1
 62
   252
420
 10000536
370
    25
100
AcDbVertex
100
AcDb2dVertex
 10
104.4825802936863
 20
-79.46565841447169
 30
0.0
  0
VERTEX
  5
253
330
24A
100
AcDbEntity
  8
Layer 1
 62
   252
420
 10000536
370
    25
100
AcDbVertex
100
AcDb2dVertex
 10
104.4355547092901
 20
-79.54213958469845
 30
0.0
  0
VERTEX
  5
254
330
24A
100
AcDbEntity
  8
Layer 1
 62
   252
420
 10000536
370
    25
100
AcDbVertex
100
AcDb2dVertex
 10
104.3887013797818
 20
-79.60673516766023
 30
0.0
  0
VERTEX
  5
255
330
24A
100
AcDbEntity
  8
Layer 1
 62
   252
420
 10000536
370
    25
100
AcDbVertex
100
AcDb2dVertex
 10
104.344431873592
 20
-79.65600006559907
 30
0.0
  0
VERTEX
  5
256
330
24A
100
AcDbEntity
  8
Layer 1
 62
   252
420
 10000536
370
    25
100
AcDbVertex
100
AcDb2dVertex
 10
104.3061912884787
 20
-79.68700594542074
 30
0.0
  0
SEQEND
  5
257
330
24A
100
AcDbEntity
  8
Layer 1
370
    25
  0
POLYLINE
  5
258
330
B5
100
AcDbEntity
  8
Layer 1
 62
     7
420
 16777215
370
    25
100
AcDb2dPolyline
 66
     1
 10
0.0
 20
0.0
 30
0.0
  0
VERTEX
  5
259
330
258
100
AcDbEntity
  8
Layer 1
 62
     7
420
 16777215
370
    25
100
AcDbVertex
100
AcDb2dVertex
 10
156.3540391962123
 20
-104.5325342111767
 30
0.0
  0
VERTEX
  5
25A
330
258
100
AcDbEntity
  8
Layer 1
 62
     7
420
 16777215
370
    25
100
AcDbVertex
100
AcDb2dVertex
 10
176.7297253759009
 20
-105.2441191530837
 30
0.0
  0
SEQEND
  5
25B
330
258
100
AcDbEntity
  8
Layer 1
370
    25
  0
POLYLINE
  5
25C
330
B5
100
AcDbEntity
  8
Layer 1
 62
   252
420
 10000536
370
    25
100
AcDb2dPolyline
 66
     1
 10
0.0
 20
0.0
 30
0.0
  0
VERTEX
  5
25D
330
25C
100
AcDbEntity
  8
Layer 1
 62
   252
420
 10000536
370
    25
100
AcDbVertex
100
AcDb2dVertex
 10
86.99629760360015
 20
-100.8266425529373
 30
0.0
  0
VERTEX
  5
25E
330
25C
100
AcDbEntity
  8
Layer 1
 62
   252
420
 10000536
370
    25
100
AcDbVertex
100
AcDb2dVertex
 10
87.0460792662027
 20
-100.8312934349106
 30
0.0
  0
VERTEX
  5
25F
330
25C
100
AcDbEntity
  8
Layer 1
 62
   252
420
 10000536
370
    25
100
AcDbVertex
100
AcDb2dVertex
 10
87.1086077905097
 20
-100.8359443168838
 30
0.0
  0
VERTEX
  5
260
330
25C
100
AcDbEntity
  8
Layer 1
 62
   252
420
 10000536
370
    25
100
AcDbVertex
100
AcDb2dVertex
 10
87.18198837275429
 20
-100.8405951988571
 30
0.0
  0
VERTEX
  5
261
330
25C
100
AcDbEntity
  8
Layer 1
 62
   252
420
 10000536
370
    25
100
AcDbVertex
100
AcDb2dVertex
 10
87.261914640739
 20
-100.8445570612787
 30
0.0
  0
VERTEX
  5
262
330
25C
100
AcDbEntity
  8
Layer 1
 62
   252
420
 10000536
370
    25
100
AcDbVertex
100
AcDb2dVertex
 10
87.34614728092116
 20
-100.8478299041488
 30
0.0
  0
SEQEND
  5
263
330
25C
100
AcDbEntity
  8
Layer 1
370
    25
  0
POLYLINE
  5
264
330
B5
100
AcDbEntity
  8
Layer 1
 62
   252
420
 10000536
370
    25
100
AcDb2dPolyline
 66
     1
 10
0.0
 20
0.0
 30
0.0
  0
VERTEX
  5
265
330
264
100
AcDbEntity
  8
Layer 1
 62
   252
420
 10000536
370
    25
100
AcDbVertex
100
AcDb2dVertex
 10
103.032883157136
 20
-78.19424508689593
 30
0.0
  0
VERTEX
  5
266
330
264
100
AcDbEntity
  8
Layer 1
 62
   252
420
 10000536
370
    25
100
AcDbVertex
100
AcDb2dVertex
 10
103.0470080579437
 20
-78.23127988779402
 30
0.0
  0
VERTEX
  5
267
330
264
100
AcDbEntity
  8
Layer 1
 62
   252
420
 10000536
370
    25
100
AcDbVertex
100
AcDb2dVertex
 10
103.04976413615
 20
-78.2862291970335
 30
0.0
  0
VERTEX
  5
268
330
264
100
AcDbEntity
  8
Layer 1
 62
   252
420
 10000536
370
    25
100
AcDbVertex
100
AcDb2dVertex
 10
103.0399456075398
 20
-78.35599242663224
 30
0.0
  0
VERTEX
  5
269
330
264
100
AcDbEntity
  8
Layer 1
 62
   252
420
 10000536
370
    25
100
AcDbVertex
100
AcDb2dVertex
 10
103.0187582563284
 20
-78.43695222394433
 30
0.0
  0
VERTEX
  5
26A
330
264
100
AcDbEntity
  8
Layer 1
 62
   252
420
 10000536
370
    25
100
AcDbVertex
100
AcDb2dVertex
 10
102.9875801216188
 20
-78.52411319722077
 30
0.0
  0
VERTEX
  5
26B
330
264
100
AcDbEntity
  8
Layer 1
 62
   252
420
 10000536
370
    25
100
AcDbVertex
100
AcDb2dVertex
 10
102.9477892425144
 20
-78.61247995471248
 30
0.0
  0
VERTEX
  5
26C
330
264
100
AcDbEntity
  8
Layer 1
 62
   252
420
 10000536
370
    25
100
AcDbVertex
100
AcDb2dVertex
 10
102.9016249325577
 20
-78.69740161444624
 30
0.0
  0
VERTEX
  5
26D
330
264
100
AcDbEntity
  8
Layer 1
 62
   252
420
 10000536
370
    25
100
AcDbVertex
100
AcDb2dVertex
 10
102.8521877797309
 20
-78.77371052978509
 30
0.0
  0
VERTEX
  5
26E
330
264
100
AcDbEntity
  8
Layer 1
 62
   252
420
 10000536
370
    25
100
AcDbVertex
100
AcDb2dVertex
 10
102.8017170975768
 20
-78.83744483830738
 30
0.0
  0
VERTEX
  5
26F
330
264
100
AcDbEntity
  8
Layer 1
 62
   252
420
 10000536
370
    25
100
AcDbVertex
100
AcDb2dVertex
 10
102.7533134740774
 20
-78.88447042270356
 30
0.0
  0
VERTEX
  5
270
330
264
100
AcDbEntity
  8
Layer 1
 62
   252
420
 10000536
370
    25
100
AcDbVertex
100
AcDb2dVertex
 10
102.7097329874392
 20
-78.91237571454305
 30
0.0
  0
SEQEND
  5
271
330
264
100
AcDbEntity
  8
Layer 1
370
    25
  0
POLYLINE
  5
272
330
B5
100
AcDbEntity
  8
Layer 1
 62
     7
420
 16777215
370
    25
100
AcDb2dPolyline
 66
     1
 10
0.0
 20
0.0
 30
0.0
  0
VERTEX
  5
273
330
272
100
AcDbEntity
  8
Layer 1
 62
     7
420
 16777215
370
    25
100
AcDbVertex
100
AcDb2dVertex
 10
51.76379959758965
 20
-100.9231052901603
 30
0.0
  0
VERTEX
  5
274
330
272
100
AcDbEntity
  8
Layer 1
 62
     7
420
 16777215
370
    25
100
AcDbVertex
100
AcDb2dVertex
 10
14.10250767221617
 20
-100.9231052901603
 30
0.0
  0
SEQEND
  5
275
330
272
100
AcDbEntity
  8
Layer 1
370
    25
  0
POLYLINE
  5
276
330
B5
100
AcDbEntity
  8
Layer 1
 62
   252
420
 10000536
370
    25
100
AcDb2dPolyline
 66
     1
 10
0.0
 20
0.0
 30
0.0
  0
VERTEX
  5
277
330
276
100
AcDbEntity
  8
Layer 1
 62
   252
420
 10000536
370
    25
100
AcDbVertex
100
AcDb2dVertex
 10
100.9944188137501
 20
-77.109039293138
 30
0.0
  0
VERTEX
  5
278
330
276
100
AcDbEntity
  8
Layer 1
 62
   252
420
 10000536
370
    25
100
AcDbVertex
100
AcDb2dVertex
 10
100.6369899213616
 20
-76.59158560989215
 30
0.0
  0
SEQEND
  5
279
330
276
100
AcDbEntity
  8
Layer 1
370
    25
  0
POLYLINE
  5
27A
330
B5
100
AcDbEntity
  8
Layer 1
 62
   252
420
 10000536
370
    25
100
AcDb2dPolyline
 66
     1
 10
0.0
 20
0.0
 30
0.0
  0
VERTEX
  5
27B
330
27A
100
AcDbEntity
  8
Layer 1
 62
   252
420
 10000536
370
    25
100
AcDbVertex
100
AcDb2dVertex
 10
101.5091164187896
 20
-77.86144864347683
 30
0.0
  0
VERTEX
  5
27C
330
27A
100
AcDbEntity
  8
Layer 1
 62
   252
420
 10000536
370
    25
100
AcDbVertex
100
AcDb2dVertex
 10
100.9944188137501
 20
-77.109039293138
 30
0.0
  0
SEQEND
  5
27D
330
27A
100
AcDbEntity
  8
Layer 1
370
    25
  0
POLYLINE
  5
27E
330
B5
100
AcDbEntity
  8
Layer 1
 62
   252
420
 10000536
370
    25
100
AcDb2dPolyline
 66
     1
 10
0.0
 20
0.0
 30
0.0
  0
VERTEX
  5
27F
330
27E
100
AcDbEntity
  8
Layer 1
 62
   252
420
 10000536
370
    25
100
AcDbVertex
100
AcDb2dVertex
 10
101.5220355353819
 20
-76.72559991267687
 30
0.0
  0
VERTEX
  5
280
330
27E
100
AcDbEntity
  8
Layer 1
 62
   252
420
 10000536
370
    25
100
AcDbVertex
100
AcDb2dVertex
 10
101.1690852700787
 20
-76.20228956324249
 30
0.0
  0
SEQEND
  5
281
330
27E
100
AcDbEntity
  8
Layer 1
370
    25
  0
POLYLINE
  5
282
330
B5
100
AcDbEntity
  8
Layer 1
 62
   252
420
 10000536
370
    25
100
AcDb2dPolyline
 66
     1
 10
0.0
 20
0.0
 30
0.0
  0
VERTEX
  5
283
330
282
100
AcDbEntity
  8
Layer 1
 62
   252
420
 10000536
370
    25
100
AcDbVertex
100
AcDb2dVertex
 10
102.0312209840087
 20
-77.4866220074106
 30
0.0
  0
VERTEX
  5
284
330
282
100
AcDbEntity
  8
Layer 1
 62
   252
420
 10000536
370
    25
100
AcDbVertex
100
AcDb2dVertex
 10
101.5220355353819
 20
-76.72559991267687
 30
0.0
  0
SEQEND
  5
285
330
282
100
AcDbEntity
  8
Layer 1
370
    25
  0
POLYLINE
  5
286
330
B5
100
AcDbEntity
  8
Layer 1
 62
   252
420
 10000536
370
    25
100
AcDb2dPolyline
 66
     1
 10
0.0
 20
0.0
 30
0.0
  0
VERTEX
  5
287
330
286
100
AcDbEntity
  8
Layer 1
 62
   252
420
 10000536
370
    25
100
AcDbVertex
100
AcDb2dVertex
 10
131.7267578734231
 20
-151.4826709664544
 30
0.0
  0
VERTEX
  5
288
330
286
100
AcDbEntity
  8
Layer 1
 62
   252
420
 10000536
370
    25
100
AcDbVertex
100
AcDb2dVertex
 10
131.2709714400448
 20
-146.005482295959
 30
0.0
  0
VERTEX
  5
289
330
286
100
AcDbEntity
  8
Layer 1
 62
   252
420
 10000536
370
    25
100
AcDbVertex
100
AcDb2dVertex
 10
130.5454338522181
 20
-140.5294994096789
 30
0.0
  0
VERTEX
  5
28A
330
286
100
AcDbEntity
  8
Layer 1
 62
   252
420
 10000536
370
    25
100
AcDbVertex
100
AcDb2dVertex
 10
129.5549682468041
 20
-135.0795270114714
 30
0.0
  0
VERTEX
  5
28B
330
286
100
AcDbEntity
  8
Layer 1
 62
   252
420
 10000536
370
    25
100
AcDbVertex
100
AcDb2dVertex
 10
128.323001288557
 20
-129.7306682324601
 30
0.0
  0
VERTEX
  5
28C
330
286
100
AcDbEntity
  8
Layer 1
 62
   252
420
 10000536
370
    25
100
AcDbVertex
100
AcDb2dVertex
 10
126.8764047399889
 20
-124.5249532652921
 30
0.0
  0
VERTEX
  5
28D
330
286
100
AcDbEntity
  8
Layer 1
 62
   252
420
 10000536
370
    25
100
AcDbVertex
100
AcDb2dVertex
 10
125.2441174222666
 20
-119.4882203431521
 30
0.0
  0
VERTEX
  5
28E
330
286
100
AcDbEntity
  8
Layer 1
 62
   252
420
 10000536
370
    25
100
AcDbVertex
100
AcDb2dVertex
 10
123.4623128618488
 20
-114.6523366203013
 30
0.0
  0
VERTEX
  5
28F
330
286
100
AcDbEntity
  8
Layer 1
 62
   252
420
 10000536
370
    25
100
AcDbVertex
100
AcDb2dVertex
 10
121.5843900739839
 20
-110.0824144443651
 30
0.0
  0
VERTEX
  5
290
330
286
100
AcDbEntity
  8
Layer 1
 62
   252
420
 10000536
370
    25
100
AcDbVertex
100
AcDb2dVertex
 10
119.6696047401088
 20
-105.8327141050315
 30
0.0
  0
VERTEX
  5
291
330
286
100
AcDbEntity
  8
Layer 1
 62
   252
420
 10000536
370
    25
100
AcDbVertex
100
AcDb2dVertex
 10
117.7909929326923
 20
-101.976616184545
 30
0.0
  0
VERTEX
  5
292
330
286
100
AcDbEntity
  8
Layer 1
 62
   252
420
 10000536
370
    25
100
AcDbVertex
100
AcDb2dVertex
 10
115.9929964128121
 20
-98.5198050942062
 30
0.0
  0
VERTEX
  5
293
330
286
100
AcDbEntity
  8
Layer 1
 62
   252
420
 10000536
370
    25
100
AcDbVertex
100
AcDb2dVertex
 10
114.3045540016351
 20
-95.44695014899227
 30
0.0
  0
VERTEX
  5
294
330
286
100
AcDbEntity
  8
Layer 1
 62
   252
420
 10000536
370
    25
100
AcDbVertex
100
AcDb2dVertex
 10
112.7394460901931
 20
-92.7285957630726
 30
0.0
  0
VERTEX
  5
295
330
286
100
AcDbEntity
  8
Layer 1
 62
   252
420
 10000536
370
    25
100
AcDbVertex
100
AcDb2dVertex
 10
111.3011177762441
 20
-90.32529556711853
 30
0.0
  0
VERTEX
  5
296
330
286
100
AcDbEntity
  8
Layer 1
 62
   252
420
 10000536
370
    25
100
AcDbVertex
100
AcDb2dVertex
 10
109.9937031770976
 20
-88.21379515126381
 30
0.0
  0
VERTEX
  5
297
330
286
100
AcDbEntity
  8
Layer 1
 62
   252
420
 10000536
370
    25
100
AcDbVertex
100
AcDb2dVertex
 10
108.8340832717677
 20
-86.39340549595686
 30
0.0
  0
VERTEX
  5
298
330
286
100
AcDbEntity
  8
Layer 1
 62
   252
420
 10000536
370
    25
100
AcDbVertex
100
AcDb2dVertex
 10
107.8377610001652
 20
-84.86447111097345
 30
0.0
  0
VERTEX
  5
299
330
286
100
AcDbEntity
  8
Layer 1
 62
   252
420
 10000536
370
    25
100
AcDbVertex
100
AcDb2dVertex
 10
106.989577932155
 20
-83.58823464653655
 30
0.0
  0
VERTEX
  5
29A
330
286
100
AcDbEntity
  8
Layer 1
 62
   252
420
 10000536
370
    25
100
AcDbVertex
100
AcDb2dVertex
 10
106.2619732856735
 20
-82.51060806784614
 30
0.0
  0
VERTEX
  5
29B
330
286
100
AcDbEntity
  8
Layer 1
 62
   252
420
 10000536
370
    25
100
AcDbVertex
100
AcDb2dVertex
 10
105.6377215719308
 20
-81.59782941687418
 30
0.0
  0
VERTEX
  5
29C
330
286
100
AcDbEntity
  8
Layer 1
 62
   252
420
 10000536
370
    25
100
AcDbVertex
100
AcDb2dVertex
 10
105.1123441638417
 20
-80.83818536124363
 30
0.0
  0
VERTEX
  5
29D
330
286
100
AcDbEntity
  8
Layer 1
 62
   252
420
 10000536
370
    25
100
AcDbVertex
100
AcDb2dVertex
 10
104.6742999839169
 20
-80.2108330595188
 30
0.0
  0
VERTEX
  5
29E
330
286
100
AcDbEntity
  8
Layer 1
 62
   252
420
 10000536
370
    25
100
AcDbVertex
100
AcDb2dVertex
 10
104.3061912884787
 20
-79.68700594542074
 30
0.0
  0
SEQEND
  5
29F
330
286
100
AcDbEntity
  8
Layer 1
370
    25
  0
POLYLINE
  5
2A0
330
B5
100
AcDbEntity
  8
Layer 1
 62
   252
420
 10000536
370
    25
100
AcDb2dPolyline
 66
     1
 10
0.0
 20
0.0
 30
0.0
  0
VERTEX
  5
2A1
330
2A0
100
AcDbEntity
  8
Layer 1
 62
   252
420
 10000536
370
    25
100
AcDbVertex
100
AcDb2dVertex
 10
131.7315810102843
 20
-151.4826709664544
 30
0.0
  0
VERTEX
  5
2A2
330
2A0
100
AcDbEntity
  8
Layer 1
 62
   252
420
 10000536
370
    25
100
AcDbVertex
100
AcDb2dVertex
 10
131.2782061453365
 20
-145.7879243725438
 30
0.0
  0
VERTEX
  5
2A3
330
2A0
100
AcDbEntity
  8
Layer 1
 62
   252
420
 10000536
370
    25
100
AcDbVertex
100
AcDb2dVertex
 10
130.548878949976
 20
-140.0909384650904
 30
0.0
  0
VERTEX
  5
2A4
330
2A0
100
AcDbEntity
  8
Layer 1
 62
   252
420
 10000536
370
    25
100
AcDbVertex
100
AcDb2dVertex
 10
129.5484225610639
 20
-134.4201353005976
 30
0.0
  0
VERTEX
  5
2A5
330
2A0
100
AcDbEntity
  8
Layer 1
 62
   252
420
 10000536
370
    25
100
AcDbVertex
100
AcDb2dVertex
 10
128.300952662906
 20
-128.8575082057047
 30
0.0
  0
VERTEX
  5
2A6
330
2A0
100
AcDbEntity
  8
Layer 1
 62
   252
420
 10000536
370
    25
100
AcDbVertex
100
AcDb2dVertex
 10
126.8350635668933
 20
-123.4459486474985
 30
0.0
  0
VERTEX
  5
2A7
330
2A0
100
AcDbEntity
  8
Layer 1
 62
   252
420
 10000536
370
    25
100
AcDbVertex
100
AcDb2dVertex
 10
125.1810721332959
 20
-118.2149122118095
 30
0.0
  0
VERTEX
  5
2A8
330
2A0
100
AcDbEntity
  8
Layer 1
 62
   252
420
 10000536
370
    25
100
AcDbVertex
100
AcDb2dVertex
 10
123.3785969863304
 20
-113.2053955619574
 30
0.0
  0
VERTEX
  5
2A9
330
2A0
100
AcDbEntity
  8
Layer 1
 62
   252
420
 10000536
370
    25
100
AcDbVertex
100
AcDb2dVertex
 10
121.4903389051915
 20
-108.4978417305906
 30
0.0
  0
VERTEX
  5
2AA
330
2A0
100
AcDbEntity
  8
Layer 1
 62
   252
420
 10000536
370
    25
100
AcDbVertex
100
AcDb2dVertex
 10
119.5793431788502
 20
-104.1509896344825
 30
0.0
  0
VERTEX
  5
2AB
330
2A0
100
AcDbEntity
  8
Layer 1
 62
   252
420
 10000536
370
    25
100
AcDbVertex
100
AcDb2dVertex
 10
117.72725862417
 20
-100.2501054431425
 30
0.0
  0
VERTEX
  5
2AC
330
2A0
100
AcDbEntity
  8
Layer 1
 62
   252
420
 10000536
370
    25
100
AcDbVertex
100
AcDb2dVertex
 10
115.964402101421
 20
-96.76728386473108
 30
0.0
  0
VERTEX
  5
2AD
330
2A0
100
AcDbEntity
  8
Layer 1
 62
   252
420
 10000536
370
    25
100
AcDbVertex
100
AcDb2dVertex
 10
114.3245355686312
 20
-93.69684048794774
 30
0.0
  0
VERTEX
  5
2AE
330
2A0
100
AcDbEntity
  8
Layer 1
 62
   252
420
 10000536
370
    25
100
AcDbVertex
100
AcDb2dVertex
 10
112.8117931431103
 20
-90.98882139530195
 30
0.0
  0
VERTEX
  5
2AF
330
2A0
100
AcDbEntity
  8
Layer 1
 62
   252
420
 10000536
370
    25
100
AcDbVertex
100
AcDb2dVertex
 10
111.4316869812708
 20
-88.61015364831731
 30
0.0
  0
VERTEX
  5
2B0
330
2A0
100
AcDbEntity
  8
Layer 1
 62
   252
420
 10000536
370
    25
100
AcDbVertex
100
AcDb2dVertex
 10
110.1935188470594
 20
-86.54447303264348
 30
0.0
  0
VERTEX
  5
2B1
330
2A0
100
AcDbEntity
  8
Layer 1
 62
   252
420
 10000536
370
    25
100
AcDbVertex
100
AcDb2dVertex
 10
109.1241605029881
 20
-84.8067657235276
 30
0.0
  0
VERTEX
  5
2B2
330
2A0
100
AcDbEntity
  8
Layer 1
 62
   252
420
 10000536
370
    25
100
AcDbVertex
100
AcDb2dVertex
 10
108.2187888121957
 20
-83.36688711558752
 30
0.0
  0
VERTEX
  5
2B3
330
2A0
100
AcDbEntity
  8
Layer 1
 62
   252
420
 10000536
370
    25
100
AcDbVertex
100
AcDb2dVertex
 10
107.4470869144123
 20
-82.16144741007672
 30
0.0
  0
VERTEX
  5
2B4
330
2A0
100
AcDbEntity
  8
Layer 1
 62
   252
420
 10000536
370
    25
100
AcDbVertex
100
AcDb2dVertex
 10
106.7866616742111
 20
-81.14462680681433
 30
0.0
  0
VERTEX
  5
2B5
330
2A0
100
AcDbEntity
  8
Layer 1
 62
   252
420
 10000536
370
    25
100
AcDbVertex
100
AcDb2dVertex
 10
106.2330344645066
 20
-80.30264491476849
 30
0.0
  0
VERTEX
  5
2B6
330
2A0
100
AcDbEntity
  8
Layer 1
 62
   252
420
 10000536
370
    25
100
AcDbVertex
100
AcDb2dVertex
 10
105.7724248942671
 20
-79.6093189909787
 30
0.0
  0
SEQEND
  5
2B7
330
2A0
100
AcDbEntity
  8
Layer 1
370
    25
  0
POLYLINE
  5
2B8
330
B5
100
AcDbEntity
  8
Layer 1
 62
   252
420
 10000536
370
    25
100
AcDb2dPolyline
 66
     1
 10
0.0
 20
0.0
 30
0.0
  0
VERTEX
  5
2B9
330
2B8
100
AcDbEntity
  8
Layer 1
 62
   252
420
 10000536
370
    25
100
AcDbVertex
100
AcDb2dVertex
 10
131.7284804223021
 20
-151.8364825061971
 30
0.0
  0
VERTEX
  5
2BA
330
2B8
100
AcDbEntity
  8
Layer 1
 62
   252
420
 10000536
370
    25
100
AcDbVertex
100
AcDb2dVertex
 10
131.7281359125263
 20
-151.8102997632366
 30
0.0
  0
VERTEX
  5
2BB
330
2B8
100
AcDbEntity
  8
Layer 1
 62
   252
420
 10000536
370
    25
100
AcDbVertex
100
AcDb2dVertex
 10
131.7295139516295
 20
-151.7796383931907
 30
0.0
  0
SEQEND
  5
2BC
330
2B8
100
AcDbEntity
  8
Layer 1
370
    25
  0
POLYLINE
  5
2BD
330
B5
100
AcDbEntity
  8
Layer 1
 62
   252
420
 10000536
370
    25
100
AcDb2dPolyline
 66
     1
 10
0.0
 20
0.0
 30
0.0
  0
VERTEX
  5
2BE
330
2BD
100
AcDbEntity
  8
Layer 1
 62
   252
420
 10000536
370
    25
100
AcDbVertex
100
AcDb2dVertex
 10
131.7281359125263
 20
-151.7796383931907
 30
0.0
  0
VERTEX
  5
2BF
330
2BD
100
AcDbEntity
  8
Layer 1
 62
   252
420
 10000536
370
    25
100
AcDbVertex
100
AcDb2dVertex
 10
131.7267578734231
 20
-151.4826709664544
 30
0.0
  0
SEQEND
  5
2C0
330
2BD
100
AcDbEntity
  8
Layer 1
370
    25
  0
POLYLINE
  5
2C1
330
B5
100
AcDbEntity
  8
Layer 1
 62
     7
420
 16777215
370
    25
100
AcDb2dPolyline
 66
     1
 10
0.0
 20
0.0
 30
0.0
  0
VERTEX
  5
2C2
330
2C1
100
AcDbEntity
  8
Layer 1
 62
     7
420
 16777215
370
    25
100
AcDbVertex
100
AcDb2dVertex
 10
131.8111627684932
 20
-130.428989547999
 30
0.0
  0
VERTEX
  5
2C3
330
2C1
100
AcDbEntity
  8
Layer 1
 62
     7
420
 16777215
370
    25
100
AcDbVertex
100
AcDb2dVertex
 10
131.8111627684932
 20
-148.6215172784673
 30
0.0
  0
SEQEND
  5
2C4
330
2C1
100
AcDbEntity
  8
Layer 1
370
    25
  0
POLYLINE
  5
2C5
330
B5
100
AcDbEntity
  8
Layer 1
 62
   252
420
 10000536
370
    25
100
AcDb2dPolyline
 66
     1
 10
0.0
 20
0.0
 30
0.0
  0
VERTEX
  5
2C6
330
2C5
100
AcDbEntity
  8
Layer 1
 62
   252
420
 10000536
370
    25
100
AcDbVertex
100
AcDb2dVertex
 10
131.7295139516295
 20
-151.7796383931907
 30
0.0
  0
VERTEX
  5
2C7
330
2C5
100
AcDbEntity
  8
Layer 1
 62
   252
420
 10000536
370
    25
100
AcDbVertex
100
AcDb2dVertex
 10
131.7312365005085
 20
-151.7169376139958
 30
0.0
  0
VERTEX
  5
2C8
330
2C5
100
AcDbEntity
  8
Layer 1
 62
   252
420
 10000536
370
    25
100
AcDbVertex
100
AcDb2dVertex
 10
131.7315810102843
 20
-151.4826709664544
 30
0.0
  0
SEQEND
  5
2C9
330
2C5
100
AcDbEntity
  8
Layer 1
370
    25
  0
POLYLINE
  5
2CA
330
B5
100
AcDbEntity
  8
Layer 1
 62
   252
420
 10000536
370
    25
100
AcDb2dPolyline
 66
     1
 10
0.0
 20
0.0
 30
0.0
  0
VERTEX
  5
2CB
330
2CA
100
AcDbEntity
  8
Layer 1
 62
   252
420
 10000536
370
    25
100
AcDbVertex
100
AcDb2dVertex
 10
102.7097329874392
 20
-78.91237571454305
 30
0.0
  0
VERTEX
  5
2CC
330
2CA
100
AcDbEntity
  8
Layer 1
 62
   252
420
 10000536
370
    25
100
AcDbVertex
100
AcDb2dVertex
 10
102.5853649583768
 20
-78.84726336691757
 30
0.0
  0
VERTEX
  5
2CD
330
2CA
100
AcDbEntity
  8
Layer 1
 62
   252
420
 10000536
370
    25
100
AcDbVertex
100
AcDb2dVertex
 10
102.4670258503908
 20
-78.77767239220674
 30
0.0
  0
VERTEX
  5
2CE
330
2CA
100
AcDbEntity
  8
Layer 1
 62
   252
420
 10000536
370
    25
100
AcDbVertex
100
AcDb2dVertex
 10
102.3564382123602
 20
-78.70515308440166
 30
0.0
  0
VERTEX
  5
2CF
330
2CA
100
AcDbEntity
  8
Layer 1
 62
   252
420
 10000536
370
    25
100
AcDbVertex
100
AcDb2dVertex
 10
102.2529130247335
 20
-78.63073897282968
 30
0.0
  0
VERTEX
  5
2D0
330
2CA
100
AcDbEntity
  8
Layer 1
 62
   252
420
 10000536
370
    25
100
AcDbVertex
100
AcDb2dVertex
 10
102.1585173461653
 20
-78.557530645473
 30
0.0
  0
VERTEX
  5
2D1
330
2CA
100
AcDbEntity
  8
Layer 1
 62
   252
420
 10000536
370
    25
100
AcDbVertex
100
AcDb2dVertex
 10
102.0734234315437
 20
-78.48690614143477
 30
0.0
  0
VERTEX
  5
2D2
330
2CA
100
AcDbEntity
  8
Layer 1
 62
   252
420
 10000536
370
    25
100
AcDbVertex
100
AcDb2dVertex
 10
101.9964254966532
 20
-78.41834869605134
 30
0.0
  0
VERTEX
  5
2D3
330
2CA
100
AcDbEntity
  8
Layer 1
 62
   252
420
 10000536
370
    25
100
AcDbVertex
100
AcDb2dVertex
 10
101.9242506986239
 20
-78.35030801533159
 30
0.0
  0
VERTEX
  5
2D4
330
2CA
100
AcDbEntity
  8
Layer 1
 62
   252
420
 10000536
370
    25
100
AcDbVertex
100
AcDb2dVertex
 10
101.8544874690252
 20
-78.28071704062077
 30
0.0
  0
VERTEX
  5
2D5
330
2CA
100
AcDbEntity
  8
Layer 1
 62
   252
420
 10000536
370
    25
100
AcDbVertex
100
AcDb2dVertex
 10
101.7852410040902
 20
-78.20785322303988
 30
0.0
  0
VERTEX
  5
2D6
330
2CA
100
AcDbEntity
  8
Layer 1
 62
   252
420
 10000536
370
    25
100
AcDbVertex
100
AcDb2dVertex
 10
101.7156500293794
 20
-78.12947724904626
 30
0.0
  0
VERTEX
  5
2D7
330
2CA
100
AcDbEntity
  8
Layer 1
 62
   252
420
 10000536
370
    25
100
AcDbVertex
100
AcDb2dVertex
 10
101.6455422900048
 20
-78.0449000990883
 30
0.0
  0
VERTEX
  5
2D8
330
2CA
100
AcDbEntity
  8
Layer 1
 62
   252
420
 10000536
370
    25
100
AcDbVertex
100
AcDb2dVertex
 10
101.5761235701819
 20
-77.9553275573813
 30
0.0
  0
VERTEX
  5
2D9
330
2CA
100
AcDbEntity
  8
Layer 1
 62
   252
420
 10000536
370
    25
100
AcDbVertex
100
AcDb2dVertex
 10
101.5091164187896
 20
-77.86144864347683
 30
0.0
  0
SEQEND
  5
2DA
330
2CA
100
AcDbEntity
  8
Layer 1
370
    25
  0
POLYLINE
  5
2DB
330
B5
100
AcDbEntity
  8
Layer 1
 62
   252
420
 10000536
370
    25
100
AcDb2dPolyline
 66
     1
 10
0.0
 20
0.0
 30
0.0
  0
VERTEX
  5
2DC
330
2DB
100
AcDbEntity
  8
Layer 1
 62
   252
420
 10000536
370
    25
100
AcDbVertex
100
AcDb2dVertex
 10
105.5839780469066
 20
-79.25567970612393
 30
0.0
  0
VERTEX
  5
2DD
330
2DB
100
AcDbEntity
  8
Layer 1
 62
   252
420
 10000536
370
    25
100
AcDbVertex
100
AcDb2dVertex
 10
105.6477123554289
 20
-79.30580587850227
 30
0.0
  0
VERTEX
  5
2DE
330
2DB
100
AcDbEntity
  8
Layer 1
 62
   252
420
 10000536
370
    25
100
AcDbVertex
100
AcDb2dVertex
 10
105.7004223511258
 20
-79.36919567724877
 30
0.0
  0
VERTEX
  5
2DF
330
2DB
100
AcDbEntity
  8
Layer 1
 62
   252
420
 10000536
370
    25
100
AcDbVertex
100
AcDb2dVertex
 10
105.7400409753423
 20
-79.44343753393284
 30
0.0
  0
VERTEX
  5
2E0
330
2DB
100
AcDbEntity
  8
Layer 1
 62
   252
420
 10000536
370
    25
100
AcDbVertex
100
AcDb2dVertex
 10
105.7645011694238
 20
-79.52456958613284
 30
0.0
  0
VERTEX
  5
2E1
330
2DB
100
AcDbEntity
  8
Layer 1
 62
   252
420
 10000536
370
    25
100
AcDbVertex
100
AcDb2dVertex
 10
105.7724248942671
 20
-79.6093189909787
 30
0.0
  0
SEQEND
  5
2E2
330
2DB
100
AcDbEntity
  8
Layer 1
370
    25
  0
POLYLINE
  5
2E3
330
B5
100
AcDbEntity
  8
Layer 1
 62
   252
420
 10000536
370
    25
100
AcDb2dPolyline
 66
     1
 10
0.0
 20
0.0
 30
0.0
  0
VERTEX
  5
2E4
330
2E3
100
AcDbEntity
  8
Layer 1
 62
   252
420
 10000536
370
    25
100
AcDbVertex
100
AcDb2dVertex
 10
160.0020532121179
 20
-79.6093189909787
 30
0.0
  0
VERTEX
  5
2E5
330
2E3
100
AcDbEntity
  8
Layer 1
 62
   252
420
 10000536
370
    25
100
AcDbVertex
100
AcDb2dVertex
 10
105.7724248942671
 20
-79.6093189909787
 30
0.0
  0
SEQEND
  5
2E6
330
2E3
100
AcDbEntity
  8
Layer 1
370
    25
  0
POLYLINE
  5
2E7
330
B5
100
AcDbEntity
  8
Layer 1
 62
   252
420
 10000536
370
    25
100
AcDb2dPolyline
 66
     1
 10
0.0
 20
0.0
 30
0.0
  0
VERTEX
  5
2E8
330
2E7
100
AcDbEntity
  8
Layer 1
 62
   252
420
 10000536
370
    25
100
AcDbVertex
100
AcDb2dVertex
 10
160.206347509165
 20
-79.25567970612393
 30
0.0
  0
VERTEX
  5
2E9
330
2E7
100
AcDbEntity
  8
Layer 1
 62
   252
420
 10000536
370
    25
100
AcDbVertex
100
AcDb2dVertex
 10
105.5839780469066
 20
-79.25567970612393
 30
0.0
  0
SEQEND
  5
2EA
330
2E7
100
AcDbEntity
  8
Layer 1
370
    25
  0
POLYLINE
  5
2EB
330
B5
100
AcDbEntity
  8
Layer 1
 62
   252
420
 10000536
370
    25
100
AcDb2dPolyline
 66
     1
 10
0.0
 20
0.0
 30
0.0
  0
VERTEX
  5
2EC
330
2EB
100
AcDbEntity
  8
Layer 1
 62
   252
420
 10000536
370
    25
100
AcDbVertex
100
AcDb2dVertex
 10
105.5839780469066
 20
-79.25567970612393
 30
0.0
  0
VERTEX
  5
2ED
330
2EB
100
AcDbEntity
  8
Layer 1
 62
   252
420
 10000536
370
    25
100
AcDbVertex
100
AcDb2dVertex
 10
105.5074968766799
 20
-79.250512059487
 30
0.0
  0
VERTEX
  5
2EE
330
2EB
100
AcDbEntity
  8
Layer 1
 62
   252
420
 10000536
370
    25
100
AcDbVertex
100
AcDb2dVertex
 10
105.4074167868111
 20
-79.23466460980036
 30
0.0
  0
VERTEX
  5
2EF
330
2EB
100
AcDbEntity
  8
Layer 1
 62
   252
420
 10000536
370
    25
100
AcDbVertex
100
AcDb2dVertex
 10
105.2942453254621
 20
-79.20985990594303
 30
0.0
  0
VERTEX
  5
2F0
330
2EB
100
AcDbEntity
  8
Layer 1
 62
   252
420
 10000536
370
    25
100
AcDbVertex
100
AcDb2dVertex
 10
105.1798680798977
 20
-79.17937079078507
 30
0.0
  0
VERTEX
  5
2F1
330
2EB
100
AcDbEntity
  8
Layer 1
 62
   252
420
 10000536
370
    25
100
AcDbVertex
100
AcDb2dVertex
 10
105.0706584809704
 20
-79.14612559742075
 30
0.0
  0
VERTEX
  5
2F2
330
2EB
100
AcDbEntity
  8
Layer 1
 62
   252
420
 10000536
370
    25
100
AcDbVertex
100
AcDb2dVertex
 10
104.9693726068863
 20
-79.11219138450483
 30
0.0
  0
VERTEX
  5
2F3
330
2EB
100
AcDbEntity
  8
Layer 1
 62
   252
420
 10000536
370
    25
100
AcDbVertex
100
AcDb2dVertex
 10
104.8748046734302
 20
-79.07756815203732
 30
0.0
  0
VERTEX
  5
2F4
330
2EB
100
AcDbEntity
  8
Layer 1
 62
   252
420
 10000536
370
    25
100
AcDbVertex
100
AcDb2dVertex
 10
104.7864379159385
 20
-79.0424281549061
 30
0.0
  0
VERTEX
  5
2F5
330
2EB
100
AcDbEntity
  8
Layer 1
 62
   252
420
 10000536
370
    25
100
AcDbVertex
100
AcDb2dVertex
 10
104.7058226284022
 20
-79.00780492243858
 30
0.0
  0
VERTEX
  5
2F6
330
2EB
100
AcDbEntity
  8
Layer 1
 62
   252
420
 10000536
370
    25
100
AcDbVertex
100
AcDb2dVertex
 10
104.6333033205971
 20
-78.97404296441056
 30
0.0
  0
SEQEND
  5
2F7
330
2EB
100
AcDbEntity
  8
Layer 1
370
    25
  0
POLYLINE
  5
2F8
330
B5
100
AcDbEntity
  8
Layer 1
 62
     7
420
 16777215
370
    25
100
AcDb2dPolyline
 66
     1
 10
0.0
 20
0.0
 30
0.0
  0
VERTEX
  5
2F9
330
2F8
100
AcDbEntity
  8
Layer 1
 62
     7
420
 16777215
370
    25
100
AcDbVertex
100
AcDb2dVertex
 10
87.9536902705377
 20
-73.44655586664894
 30
0.0
  0
VERTEX
  5
2FA
330
2F8
100
AcDbEntity
  8
Layer 1
 62
     7
420
 16777215
370
    25
100
AcDbVertex
100
AcDb2dVertex
 10
87.92320115537974
 20
-73.43845988691773
 30
0.0
  0
VERTEX
  5
2FB
330
2F8
100
AcDbEntity
  8
Layer 1
 62
     7
420
 16777215
370
    25
100
AcDbVertex
100
AcDb2dVertex
 10
87.83914077008548
 20
-73.40245861534702
 30
0.0
  0
VERTEX
  5
2FC
330
2F8
100
AcDbEntity
  8
Layer 1
 62
     7
420
 16777215
370
    25
100
AcDbVertex
100
AcDb2dVertex
 10
87.7650711682893
 20
-73.34854283543493
 30
0.0
  0
VERTEX
  5
2FD
330
2F8
100
AcDbEntity
  8
Layer 1
 62
     7
420
 16777215
370
    25
100
AcDbVertex
100
AcDb2dVertex
 10
87.70512646730077
 20
-73.27929637049989
 30
0.0
  0
VERTEX
  5
2FE
330
2F8
100
AcDbEntity
  8
Layer 1
 62
     7
420
 16777215
370
    25
100
AcDbVertex
100
AcDb2dVertex
 10
87.68049401833134
 20
-73.23933323650753
 30
0.0
  0
SEQEND
  5
2FF
330
2F8
100
AcDbEntity
  8
Layer 1
370
    25
  0
POLYLINE
  5
300
330
B5
100
AcDbEntity
  8
Layer 1
 62
   252
420
 10000536
370
    25
100
AcDb2dPolyline
 66
     1
 10
0.0
 20
0.0
 30
0.0
  0
VERTEX
  5
301
330
300
100
AcDbEntity
  8
Layer 1
 62
   252
420
 10000536
370
    25
100
AcDbVertex
100
AcDb2dVertex
 10
103.032883157136
 20
-78.19424508689593
 30
0.0
  0
VERTEX
  5
302
330
300
100
AcDbEntity
  8
Layer 1
 62
   252
420
 10000536
370
    25
100
AcDbVertex
100
AcDb2dVertex
 10
102.9396932627832
 20
-78.15049234536983
 30
0.0
  0
VERTEX
  5
303
330
300
100
AcDbEntity
  8
Layer 1
 62
   252
420
 10000536
370
    25
100
AcDbVertex
100
AcDb2dVertex
 10
102.8501207210762
 20
-78.10381127074945
 30
0.0
  0
VERTEX
  5
304
330
300
100
AcDbEntity
  8
Layer 1
 62
   252
420
 10000536
370
    25
100
AcDbVertex
100
AcDb2dVertex
 10
102.7638210222392
 20
-78.05506313747428
 30
0.0
  0
VERTEX
  5
305
330
300
100
AcDbEntity
  8
Layer 1
 62
   252
420
 10000536
370
    25
100
AcDbVertex
100
AcDb2dVertex
 10
102.6814831858239
 20
-78.00493696509594
 30
0.0
  0
VERTEX
  5
306
330
300
100
AcDbEntity
  8
Layer 1
 62
   252
420
 10000536
370
    25
100
AcDbVertex
100
AcDb2dVertex
 10
102.6055187802609
 20
-77.95567206715708
 30
0.0
  0
VERTEX
  5
307
330
300
100
AcDbEntity
  8
Layer 1
 62
   252
420
 10000536
370
    25
100
AcDbVertex
100
AcDb2dVertex
 10
102.5354110408863
 20
-77.90795746320931
 30
0.0
  0
VERTEX
  5
308
330
300
100
AcDbEntity
  8
Layer 1
 62
   252
420
 10000536
370
    25
100
AcDbVertex
100
AcDb2dVertex
 10
102.4706432030367
 20
-77.86196540814053
 30
0.0
  0
VERTEX
  5
309
330
300
100
AcDbEntity
  8
Layer 1
 62
   252
420
 10000536
370
    25
100
AcDbVertex
100
AcDb2dVertex
 10
102.4093204629449
 20
-77.81614560795964
 30
0.0
  0
VERTEX
  5
30A
330
300
100
AcDbEntity
  8
Layer 1
 62
   252
420
 10000536
370
    25
100
AcDbVertex
100
AcDb2dVertex
 10
102.3490312521806
 20
-77.76946453333926
 30
0.0
  0
VERTEX
  5
30B
330
300
100
AcDbEntity
  8
Layer 1
 62
   252
420
 10000536
370
    25
100
AcDbVertex
100
AcDb2dVertex
 10
102.2882252767526
 20
-77.7201996354004
 30
0.0
  0
VERTEX
  5
30C
330
300
100
AcDbEntity
  8
Layer 1
 62
   252
420
 10000536
370
    25
100
AcDbVertex
100
AcDb2dVertex
 10
102.2258690073335
 20
-77.66731738481569
 30
0.0
  0
VERTEX
  5
30D
330
300
100
AcDbEntity
  8
Layer 1
 62
   252
420
 10000536
370
    25
100
AcDbVertex
100
AcDb2dVertex
 10
102.1616179341475
 20
-77.61030101692143
 30
0.0
  0
VERTEX
  5
30E
330
300
100
AcDbEntity
  8
Layer 1
 62
   252
420
 10000536
370
    25
100
AcDbVertex
100
AcDb2dVertex
 10
102.0959888218583
 20
-77.5500118061571
 30
0.0
  0
VERTEX
  5
30F
330
300
100
AcDbEntity
  8
Layer 1
 62
   252
420
 10000536
370
    25
100
AcDbVertex
100
AcDb2dVertex
 10
102.0312209840087
 20
-77.4866220074106
 30
0.0
  0
SEQEND
  5
310
330
300
100
AcDbEntity
  8
Layer 1
370
    25
  0
POLYLINE
  5
311
330
B5
100
AcDbEntity
  8
Layer 1
 62
   252
420
 10000536
370
    25
100
AcDb2dPolyline
 66
     1
 10
0.0
 20
0.0
 30
0.0
  0
VERTEX
  5
312
330
311
100
AcDbEntity
  8
Layer 1
 62
   252
420
 10000536
370
    25
100
AcDbVertex
100
AcDb2dVertex
 10
104.3061912884787
 20
-79.68700594542074
 30
0.0
  0
VERTEX
  5
313
330
311
100
AcDbEntity
  8
Layer 1
 62
   252
420
 10000536
370
    25
100
AcDbVertex
100
AcDb2dVertex
 10
102.7097329874392
 20
-78.91237571454305
 30
0.0
  0
SEQEND
  5
314
330
311
100
AcDbEntity
  8
Layer 1
370
    25
  0
POLYLINE
  5
315
330
B5
100
AcDbEntity
  8
Layer 1
 62
   252
420
 10000536
370
    25
100
AcDb2dPolyline
 66
     1
 10
0.0
 20
0.0
 30
0.0
  0
VERTEX
  5
316
330
315
100
AcDbEntity
  8
Layer 1
 62
   252
420
 10000536
370
    25
100
AcDbVertex
100
AcDb2dVertex
 10
104.6333033205971
 20
-78.97404296441056
 30
0.0
  0
VERTEX
  5
317
330
315
100
AcDbEntity
  8
Layer 1
 62
   252
420
 10000536
370
    25
100
AcDbVertex
100
AcDb2dVertex
 10
103.032883157136
 20
-78.19424508689593
 30
0.0
  0
SEQEND
  5
318
330
315
100
AcDbEntity
  8
Layer 1
370
    25
  0
POLYLINE
  5
319
330
B5
100
AcDbEntity
  8
Layer 1
 62
   252
420
 10000536
370
    25
100
AcDb2dPolyline
 66
     1
 10
0.0
 20
0.0
 30
0.0
  0
VERTEX
  5
31A
330
319
100
AcDbEntity
  8
Layer 1
 62
   252
420
 10000536
370
    25
100
AcDbVertex
100
AcDb2dVertex
 10
162.0446516728134
 20
-78.19424508689593
 30
0.0
  0
VERTEX
  5
31B
330
319
100
AcDbEntity
  8
Layer 1
 62
   252
420
 10000536
370
    25
100
AcDbVertex
100
AcDb2dVertex
 10
103.032883157136
 20
-78.19424508689593
 30
0.0
  0
SEQEND
  5
31C
330
319
100
AcDbEntity
  8
Layer 1
370
    25
  0
POLYLINE
  5
31D
330
B5
100
AcDbEntity
  8
Layer 1
 62
   252
420
 10000536
370
    25
100
AcDb2dPolyline
 66
     1
 10
0.0
 20
0.0
 30
0.0
  0
VERTEX
  5
31E
330
31D
100
AcDbEntity
  8
Layer 1
 62
   252
420
 10000536
370
    25
100
AcDbVertex
100
AcDb2dVertex
 10
102.0312209840087
 20
-77.4866220074106
 30
0.0
  0
VERTEX
  5
31F
330
31D
100
AcDbEntity
  8
Layer 1
 62
   252
420
 10000536
370
    25
100
AcDbVertex
100
AcDb2dVertex
 10
162.4532402669076
 20
-77.4866220074106
 30
0.0
  0
SEQEND
  5
320
330
31D
100
AcDbEntity
  8
Layer 1
370
    25
  0
POLYLINE
  5
321
330
B5
100
AcDbEntity
  8
Layer 1
 62
     7
420
 16777215
370
    25
100
AcDb2dPolyline
 66
     1
 10
0.0
 20
0.0
 30
0.0
  0
VERTEX
  5
322
330
321
100
AcDbEntity
  8
Layer 1
 62
     7
420
 16777215
370
    25
100
AcDbVertex
100
AcDb2dVertex
 10
93.1066952420089
 20
-74.57620342148456
 30
0.0
  0
VERTEX
  5
323
330
321
100
AcDbEntity
  8
Layer 1
 62
     7
420
 16777215
370
    25
100
AcDbVertex
100
AcDb2dVertex
 10
87.9536902705377
 20
-73.44655586664894
 30
0.0
  0
SEQEND
  5
324
330
321
100
AcDbEntity
  8
Layer 1
370
    25
  0
POLYLINE
  5
325
330
B5
100
AcDbEntity
  8
Layer 1
 62
     7
420
 16777215
370
    25
100
AcDb2dPolyline
 66
     1
 10
0.0
 20
0.0
 30
0.0
  0
VERTEX
  5
326
330
325
100
AcDbEntity
  8
Layer 1
 62
     7
420
 16777215
370
    25
100
AcDbVertex
100
AcDb2dVertex
 10
54.46854584736538
 20
-69.89190399998407
 30
0.0
  0
VERTEX
  5
327
330
325
100
AcDbEntity
  8
Layer 1
 62
     7
420
 16777215
370
    25
100
AcDbVertex
100
AcDb2dVertex
 10
66.64576063754465
 20
-69.92135958581463
 30
0.0
  0
SEQEND
  5
328
330
325
100
AcDbEntity
  8
Layer 1
370
    25
  0
POLYLINE
  5
329
330
B5
100
AcDbEntity
  8
Layer 1
 62
     7
420
 16777215
370
    25
100
AcDb2dPolyline
 66
     1
 10
0.0
 20
0.0
 30
0.0
  0
VERTEX
  5
32A
330
329
100
AcDbEntity
  8
Layer 1
 62
     7
420
 16777215
370
    25
100
AcDbVertex
100
AcDb2dVertex
 10
100.3517358270023
 20
-57.83940174864299
 30
0.0
  0
VERTEX
  5
32B
330
329
100
AcDbEntity
  8
Layer 1
 62
     7
420
 16777215
370
    25
100
AcDbVertex
100
AcDb2dVertex
 10
101.1690852700787
 20
-58.34738141305444
 30
0.0
  0
SEQEND
  5
32C
330
329
100
AcDbEntity
  8
Layer 1
370
    25
  0
POLYLINE
  5
32D
330
B5
100
AcDbEntity
  8
Layer 1
 62
     7
420
 16777215
370
    25
100
AcDb2dPolyline
 66
     1
 10
0.0
 20
0.0
 30
0.0
  0
VERTEX
  5
32E
330
32D
100
AcDbEntity
  8
Layer 1
 62
     7
420
 16777215
370
    25
100
AcDbVertex
100
AcDb2dVertex
 10
162.8749202324821
 20
-45.66856038931594
 30
0.0
  0
VERTEX
  5
32F
330
32D
100
AcDbEntity
  8
Layer 1
 62
     7
420
 16777215
370
    25
100
AcDbVertex
100
AcDb2dVertex
 10
163.2704174550961
 20
-57.83940174864299
 30
0.0
  0
SEQEND
  5
330
330
32D
100
AcDbEntity
  8
Layer 1
370
    25
  0
POLYLINE
  5
331
330
B5
100
AcDbEntity
  8
Layer 1
 62
     7
420
 16777215
370
    25
100
AcDb2dPolyline
 66
     1
 10
0.0
 20
0.0
 30
0.0
  0
VERTEX
  5
332
330
331
100
AcDbEntity
  8
Layer 1
 62
     7
420
 16777215
370
    25
100
AcDbVertex
100
AcDb2dVertex
 10
162.4532402669076
 20
-186.6361039789197
 30
0.0
  0
VERTEX
  5
333
330
331
100
AcDbEntity
  8
Layer 1
 62
     7
420
 16777215
370
    25
100
AcDbVertex
100
AcDb2dVertex
 10
162.4532402669076
 20
-202.4105175930747
 30
0.0
  0
SEQEND
  5
334
330
331
100
AcDbEntity
  8
Layer 1
370
    25
  0
POLYLINE
  5
335
330
B5
100
AcDbEntity
  8
Layer 1
 62
     7
420
 16777215
370
    25
100
AcDb2dPolyline
 66
     1
 10
0.0
 20
0.0
 30
0.0
  0
VERTEX
  5
336
330
335
100
AcDbEntity
  8
Layer 1
 62
     7
420
 16777215
370
    25
100
AcDbVertex
100
AcDb2dVertex
 10
162.4532402669076
 20
-58.34738141305444
 30
0.0
  0
VERTEX
  5
337
330
335
100
AcDbEntity
  8
Layer 1
 62
     7
420
 16777215
370
    25
100
AcDbVertex
100
AcDb2dVertex
 10
101.1690852700787
 20
-58.34738141305444
 30
0.0
  0
SEQEND
  5
338
330
335
100
AcDbEntity
  8
Layer 1
370
    25
  0
POLYLINE
  5
339
330
B5
100
AcDbEntity
  8
Layer 1
 62
     7
420
 16777215
370
    25
100
AcDb2dPolyline
 66
     1
 10
0.0
 20
0.0
 30
0.0
  0
VERTEX
  5
33A
330
339
100
AcDbEntity
  8
Layer 1
 62
     7
420
 16777215
370
    25
100
AcDbVertex
100
AcDb2dVertex
 10
100.3517358270023
 20
-57.83940174864299
 30
0.0
  0
VERTEX
  5
33B
330
339
100
AcDbEntity
  8
Layer 1
 62
     7
420
 16777215
370
    25
100
AcDbVertex
100
AcDb2dVertex
 10
163.2704174550961
 20
-57.83940174864299
 30
0.0
  0
SEQEND
  5
33C
330
339
100
AcDbEntity
  8
Layer 1
370
    25
  0
POLYLINE
  5
33D
330
B5
100
AcDbEntity
  8
Layer 1
 62
   252
420
 10000536
370
    25
100
AcDb2dPolyline
 66
     1
 10
0.0
 20
0.0
 30
0.0
  0
VERTEX
  5
33E
330
33D
100
AcDbEntity
  8
Layer 1
 62
   252
420
 10000536
370
    25
100
AcDbVertex
100
AcDb2dVertex
 10
162.8749202324821
 20
-45.66856038931594
 30
0.0
  0
VERTEX
  5
33F
330
33D
100
AcDbEntity
  8
Layer 1
 62
   252
420
 10000536
370
    25
100
AcDbVertex
100
AcDb2dVertex
 10
100.7475775593921
 20
-45.66856038931594
 30
0.0
  0
SEQEND
  5
340
330
33D
100
AcDbEntity
  8
Layer 1
370
    25
  0
POLYLINE
  5
341
330
B5
100
AcDbEntity
  8
Layer 1
 62
     7
420
 16777215
370
    25
100
AcDb2dPolyline
 66
     1
 10
0.0
 20
0.0
 30
0.0
  0
VERTEX
  5
342
330
341
100
AcDbEntity
  8
Layer 1
 62
     7
420
 16777215
370
    25
100
AcDbVertex
100
AcDb2dVertex
 10
162.4663316383879
 20
-45.27340767647773
 30
0.0
  0
VERTEX
  5
343
330
341
100
AcDbEntity
  8
Layer 1
 62
     7
420
 16777215
370
    25
100
AcDbVertex
100
AcDb2dVertex
 10
101.1558216437106
 20
-45.27340767647773
 30
0.0
  0
SEQEND
  5
344
330
341
100
AcDbEntity
  8
Layer 1
370
    25
  0
POLYLINE
  5
345
330
B5
100
AcDbEntity
  8
Layer 1
 62
     7
420
 16777215
370
    25
100
AcDb2dPolyline
 66
     1
 10
0.0
 20
0.0
 30
0.0
  0
VERTEX
  5
346
330
345
100
AcDbEntity
  8
Layer 1
 62
     7
420
 16777215
370
    25
100
AcDbVertex
100
AcDb2dVertex
 10
163.6917529108948
 20
-45.27340767647773
 30
0.0
  0
VERTEX
  5
347
330
345
100
AcDbEntity
  8
Layer 1
 62
     7
420
 16777215
370
    25
100
AcDbVertex
100
AcDb2dVertex
 10
199.580714294685
 20
-45.27340767647773
 30
0.0
  0
SEQEND
  5
348
330
345
100
AcDbEntity
  8
Layer 1
370
    25
  0
POLYLINE
  5
349
330
B5
100
AcDbEntity
  8
Layer 1
 62
     7
420
 16777215
370
    25
100
AcDb2dPolyline
 66
     1
 10
0.0
 20
0.0
 30
0.0
  0
VERTEX
  5
34A
330
349
100
AcDbEntity
  8
Layer 1
 62
     7
420
 16777215
370
    25
100
AcDbVertex
100
AcDb2dVertex
 10
197.1291827301194
 20
-45.27340767647773
 30
0.0
  0
VERTEX
  5
34B
330
349
100
AcDbEntity
  8
Layer 1
 62
     7
420
 16777215
370
    25
100
AcDbVertex
100
AcDb2dVertex
 10
197.1291827301194
 20
-113.0946356690389
 30
0.0
  0
SEQEND
  5
34C
330
349
100
AcDbEntity
  8
Layer 1
370
    25
  0
POLYLINE
  5
34D
330
B5
100
AcDbEntity
  8
Layer 1
 62
     7
420
 16777215
370
    25
100
AcDb2dPolyline
 66
     1
 10
0.0
 20
0.0
 30
0.0
  0
VERTEX
  5
34E
330
34D
100
AcDbEntity
  8
Layer 1
 62
     7
420
 16777215
370
    25
100
AcDbVertex
100
AcDb2dVertex
 10
197.1291827301194
 20
-185.819271300507
 30
0.0
  0
VERTEX
  5
34F
330
34D
100
AcDbEntity
  8
Layer 1
 62
     7
420
 16777215
370
    25
100
AcDbVertex
100
AcDb2dVertex
 10
197.1291827301194
 20
-117.9975265432821
 30
0.0
  0
SEQEND
  5
350
330
34D
100
AcDbEntity
  8
Layer 1
370
    25
  0
SPLINE
  5
351
330
B5
100
AcDbEntity
  8
Layer 1
 62
     7
420
 16777215
370
    25
100
AcDbSpline
210
0.0
220
0.0
230
1.0
 70
     8
 71
     3
 72
     8
 73
     4
 74
     0
 42
0.0000000001
 43
0.0000000001
 40
0.0
 40
0.0
 40
0.0
 40
0.0
 40
1.0
 40
1.0
 40
1.0
 40
1.0
 10
100.6369899213616
 20
-76.59158560989215
 30
0.0
 10
98.15858659428392
 20
-75.80575881130109
 30
0.0
 10
95.64607679940246
 20
-75.13327572894697
 30
0.0
 10
93.1066952420089
 20
-74.57620342148456
 30
0.0
  0
SPLINE
  5
352
330
B5
100
AcDbEntity
  8
Layer 1
 62
     7
420
 16777215
370
    25
100
AcDbSpline
210
0.0
220
0.0
230
1.0
 70
     8
 71
     3
 72
     8
 73
     4
 74
     0
 42
0.0000000001
 43
0.0000000001
 40
0.0
 40
0.0
 40
0.0
 40
0.0
 40
1.0
 40
1.0
 40
1.0
 40
1.0
 10
103.13089618835
 20
-151.6707733040391
 30
0.0
 10
101.0741728268469
 20
-142.4480743510878
 30
0.0
 10
94.65406089999739
 20
-134.8049527201619
 30
0.0
 10
85.92487220087406
 20
-131.1870833096384
 30
0.0
  0
SPLINE
  5
353
330
B5
100
AcDbEntity
  8
Layer 1
 62
     7
420
 16777215
370
    25
100
AcDbSpline
210
0.0
220
0.0
230
1.0
 70
     8
 71
     3
 72
     8
 73
     4
 74
     0
 42
0.0000000001
 43
0.0000000001
 40
0.0
 40
0.0
 40
0.0
 40
0.0
 40
1.0
 40
1.0
 40
1.0
 40
1.0
 10
101.5775016092851
 20
-152.8979171254251
 30
0.0
 10
101.3246314338507
 20
-153.0439892703627
 30
0.0
 10
101.1690852700787
 20
-153.3137404248111
 30
0.0
 10
101.1690852700787
 20
-153.6055402049104
 30
0.0
  0
SPLINE
  5
354
330
B5
100
AcDbEntity
  8
Layer 1
 62
     7
420
 16777215
370
    25
100
AcDbSpline
210
0.0
220
0.0
230
1.0
 70
     8
 71
     3
 72
     8
 73
     4
 74
     0
 42
0.0000000001
 43
0.0000000001
 40
0.0
 40
0.0
 40
0.0
 40
0.0
 40
1.0
 40
1.0
 40
1.0
 40
1.0
 10
84.1136120546257
 20
-132.6707146591046
 30
0.0
 10
84.40523957983716
 20
-132.6812222072664
 30
0.0
 10
84.6803306358104
 20
-132.5346332976651
 30
0.0
 10
84.83501552514288
 20
-132.2871030237556
 30
0.0
  0
SPLINE
  5
355
330
B5
100
AcDbEntity
  8
Layer 1
 62
     7
420
 16777215
370
    25
100
AcDbSpline
210
0.0
220
0.0
230
1.0
 70
     8
 71
     3
 72
     8
 73
     4
 74
     0
 42
0.0000000001
 43
0.0000000001
 40
0.0
 40
0.0
 40
0.0
 40
0.0
 40
1.0
 40
1.0
 40
1.0
 40
1.0
 10
101.1690852700787
 20
-185.4103381966369
 30
0.0
 10
101.1690852700787
 20
-185.6359920997834
 30
0.0
 10
101.3516754512507
 20
-185.819271300507
 30
0.0
 10
101.5775016092851
 20
-185.819271300507
 30
0.0
  0
SPLINE
  5
356
330
B5
100
AcDbEntity
  8
Layer 1
 62
     7
420
 16777215
370
    25
100
AcDbSpline
210
0.0
220
0.0
230
1.0
 70
     8
 71
     3
 72
     8
 73
     4
 74
     0
 42
0.0000000001
 43
0.0000000001
 40
0.0
 40
0.0
 40
0.0
 40
0.0
 40
1.0
 40
1.0
 40
1.0
 40
1.0
 10
51.91951801624953
 20
-131.5594983772741
 30
0.0
 10
51.91159429140621
 20
-131.7799846337836
 30
0.0
 10
52.08023182665843
 20
-131.9668811871531
 30
0.0
 10
52.30002906361639
 20
-131.9815228526244
 30
0.0
  0
SPLINE
  5
357
330
B5
100
AcDbEntity
  8
Layer 1
 62
     7
420
 16777215
370
    25
100
AcDbSpline
210
0.0
220
0.0
230
1.0
 70
     8
 71
     3
 72
     8
 73
     4
 74
     0
 42
0.0000000001
 43
0.0000000001
 40
0.0
 40
0.0
 40
0.0
 40
0.0
 40
1.0
 40
1.0
 40
1.0
 40
1.0
 10
85.92487220087406
 20
-131.1870833096384
 30
0.0
 10
85.74021496104731
 20
-131.1106021394117
 30
0.0
 10
85.52782468426898
 20
-131.1788150750193
 30
0.0
 10
85.42206018309956
 20
-131.3479693749352
 30
0.0
  0
SPLINE
  5
358
330
B5
100
AcDbEntity
  8
Layer 1
 62
     7
420
 16777215
370
    25
100
AcDbSpline
210
0.0
220
0.0
230
1.0
 70
     8
 71
     3
 72
     8
 73
     4
 74
     0
 42
0.0000000001
 43
0.0000000001
 40
0.0
 40
0.0
 40
0.0
 40
0.0
 40
1.0
 40
1.0
 40
1.0
 40
1.0
 10
103.13089618835
 20
-151.6707733040391
 30
0.0
 10
103.1696535381271
 20
-151.845095250592
 30
0.0
 10
103.0909330543577
 20
-152.024240334006
 30
0.0
 10
102.9362481650252
 20
-152.1134683659372
 30
0.0
  0
SPLINE
  5
359
330
B5
100
AcDbEntity
  8
Layer 1
 62
     7
420
 16777215
370
    25
100
AcDbSpline
210
0.0
220
0.0
230
1.0
 70
     8
 71
     3
 72
     8
 73
     4
 74
     0
 42
0.0000000001
 43
0.0000000001
 40
0.0
 40
0.0
 40
0.0
 40
0.0
 40
1.0
 40
1.0
 40
1.0
 40
1.0
 10
86.94531015678231
 20
-71.85664325134961
 30
0.0
 10
86.80819526601545
 20
-71.59894993905408
 30
0.0
 10
86.54412852286768
 20
-71.43392975644771
 30
0.0
 10
86.25215648788043
 20
-71.42359446317383
 30
0.0
  0
SPLINE
  5
35A
330
B5
100
AcDbEntity
  8
Layer 1
 62
     7
420
 16777215
370
    25
100
AcDbSpline
210
0.0
220
0.0
230
1.0
 70
     8
 71
     3
 72
     8
 73
     4
 74
     0
 42
0.0000000001
 43
0.0000000001
 40
0.0
 40
0.0
 40
0.0
 40
0.0
 40
1.0
 40
1.0
 40
1.0
 40
1.0
 10
54.46854584736538
 20
-69.89190399998407
 30
0.0
 10
54.24805959085583
 20
-69.89138723532037
 30
0.0
 10
54.06684744878704
 20
-70.06622594653692
 30
0.0
 10
54.05926823371953
 20
-70.28636769327068
 30
0.0
  0
SPLINE
  5
35B
330
B5
100
AcDbEntity
  8
Layer 1
 62
     7
420
 16777215
370
    25
100
AcDbSpline
210
0.0
220
0.0
230
1.0
 70
     8
 71
     3
 72
     8
 73
     4
 74
     0
 42
0.0000000001
 43
0.0000000001
 40
0.0
 40
0.0
 40
0.0
 40
0.0
 40
1.0
 40
1.0
 40
1.0
 40
1.0
 10
101.1558216437106
 20
-45.27340767647773
 30
0.0
 10
100.935335387201
 20
-45.27340767647773
 30
0.0
 10
100.7546400097959
 20
-45.44807413280639
 30
0.0
 10
100.7475775593921
 20
-45.66856038931594
 30
0.0
  0
SPLINE
  5
35C
330
B5
100
AcDbEntity
  8
Layer 1
 62
     7
420
 16777215
370
    25
100
AcDbSpline
210
0.0
220
0.0
230
1.0
 70
     8
 71
     3
 72
     8
 73
     4
 74
     0
 42
0.0000000001
 43
0.0000000001
 40
0.0
 40
0.0
 40
0.0
 40
0.0
 40
1.0
 40
1.0
 40
1.0
 40
1.0
 10
101.1690852700787
 20
-76.20228956324249
 30
0.0
 10
101.1690852700787
 20
-76.33234200360553
 30
0.0
 10
101.1067290006596
 20
-76.45481522890108
 30
0.0
 10
101.0014812641539
 20
-76.53181316379153
 30
0.0
  0
SPLINE
  5
35D
330
B5
100
AcDbEntity
  8
Layer 1
 62
     7
420
 16777215
370
    25
100
AcDbSpline
210
0.0
220
0.0
230
1.0
 70
     8
 71
     3
 72
     8
 73
     4
 74
     0
 42
0.0000000001
 43
0.0000000001
 40
0.0
 40
0.0
 40
0.0
 40
0.0
 40
1.0
 40
1.0
 40
1.0
 40
1.0
 10
101.0014812641539
 20
-76.53181316379153
 30
0.0
 10
100.896578037424
 20
-76.60881109868197
 30
0.0
 10
100.7608411857603
 20
-76.63103197922082
 30
0.0
 10
100.6369899213616
 20
-76.59158560989215
 30
0.0
  0
SPLINE
  5
35E
330
B5
100
AcDbEntity
  8
Layer 1
 62
     7
420
 16777215
370
    25
100
AcDbSpline
210
0.0
220
0.0
230
1.0
 70
     8
 71
     3
 72
     8
 73
     4
 74
     0
 42
0.0000000001
 43
0.0000000001
 40
0.0
 40
0.0
 40
0.0
 40
0.0
 40
1.0
 40
1.0
 40
1.0
 40
1.0
 10
162.4532402669076
 20
-153.6055402049104
 30
0.0
 10
162.4532402669076
 20
-153.3137404248111
 30
0.0
 10
162.2975218482478
 20
-153.0439892703627
 30
0.0
 10
162.0446516728134
 20
-152.8979171254251
 30
0.0
  0
SPLINE
  5
35F
330
B5
100
AcDbEntity
  8
Layer 1
 62
     7
420
 16777215
370
    25
100
AcDbSpline
210
0.0
220
0.0
230
1.0
 70
     8
 71
     3
 72
     8
 73
     4
 74
     0
 42
0.0000000001
 43
0.0000000001
 40
0.0
 40
0.0
 40
0.0
 40
0.0
 40
1.0
 40
1.0
 40
1.0
 40
1.0
 10
160.0020532121179
 20
-151.4826709664544
 30
0.0
 10
160.0020532121179
 20
-151.628743111392
 30
0.0
 10
160.0799124214478
 20
-151.7634464337283
 30
0.0
 10
160.206347509165
 20
-151.8364825061971
 30
0.0
  0
SPLINE
  5
360
330
B5
100
AcDbEntity
  8
Layer 1
 62
     7
420
 16777215
370
    25
100
AcDbSpline
210
0.0
220
0.0
230
1.0
 70
     8
 71
     3
 72
     8
 73
     4
 74
     0
 42
0.0000000001
 43
0.0000000001
 40
0.0
 40
0.0
 40
0.0
 40
0.0
 40
1.0
 40
1.0
 40
1.0
 40
1.0
 10
162.0446516728134
 20
-185.819271300507
 30
0.0
 10
162.2703055759599
 20
-185.819271300507
 30
0.0
 10
162.4532402669076
 20
-185.6359920997834
 30
0.0
 10
162.4532402669076
 20
-185.4103381966369
 30
0.0
  0
SPLINE
  5
361
330
B5
100
AcDbEntity
  8
Layer 1
 62
     7
420
 16777215
370
    25
100
AcDbSpline
210
0.0
220
0.0
230
1.0
 70
     8
 71
     3
 72
     8
 73
     4
 74
     0
 42
0.0000000001
 43
0.0000000001
 40
0.0
 40
0.0
 40
0.0
 40
0.0
 40
1.0
 40
1.0
 40
1.0
 40
1.0
 10
131.8111627684932
 20
-146.1701579687896
 30
0.0
 10
143.7346461087986
 20
-146.1701579687896
 30
0.0
 10
155.1096698860365
 20
-141.1608135738254
 30
0.0
 10
163.159140797514
 20
-132.3647899781976
 30
0.0
  0
SPLINE
  5
362
330
B5
100
AcDbEntity
  8
Layer 1
 62
     7
420
 16777215
370
    25
100
AcDbSpline
210
0.0
220
0.0
230
1.0
 70
     8
 71
     3
 72
     8
 73
     4
 74
     0
 42
0.0000000001
 43
0.0000000001
 40
0.0
 40
0.0
 40
0.0
 40
0.0
 40
1.0
 40
1.0
 40
1.0
 40
1.0
 10
167.024540481947
 20
-127.4620713588424
 30
0.0
 10
171.4873201176106
 20
-120.8554073883992
 30
0.0
 10
174.001552461371
 20
-113.1265028233001
 30
0.0
 10
174.2795718504385
 20
-105.1585084737984
 30
0.0
  0
SPLINE
  5
363
330
B5
100
AcDbEntity
  8
Layer 1
 62
     7
420
 16777215
370
    25
100
AcDbSpline
210
0.0
220
0.0
230
1.0
 70
     8
 71
     3
 72
     8
 73
     4
 74
     0
 42
0.0000000001
 43
0.0000000001
 40
0.0
 40
0.0
 40
0.0
 40
0.0
 40
1.0
 40
1.0
 40
1.0
 40
1.0
 10
162.0446516728134
 20
-78.19424508689593
 30
0.0
 10
162.2975218482478
 20
-78.04800068707046
 30
0.0
 10
162.4532402669076
 20
-77.77842178750996
 30
0.0
 10
162.4532402669076
 20
-77.4866220074106
 30
0.0
  0
SPLINE
  5
364
330
B5
100
AcDbEntity
  8
Layer 1
 62
     7
420
 16777215
370
    25
100
AcDbSpline
210
0.0
220
0.0
230
1.0
 70
     8
 71
     3
 72
     8
 73
     4
 74
     0
 42
0.0000000001
 43
0.0000000001
 40
0.0
 40
0.0
 40
0.0
 40
0.0
 40
1.0
 40
1.0
 40
1.0
 40
1.0
 10
160.206347509165
 20
-79.25567970612393
 30
0.0
 10
160.0799124214478
 20
-79.32871577859272
 30
0.0
 10
160.0020532121179
 20
-79.46341910092902
 30
0.0
 10
160.0020532121179
 20
-79.6093189909787
 30
0.0
  0
SPLINE
  5
365
330
B5
100
AcDbEntity
  8
Layer 1
 62
     7
420
 16777215
370
    25
100
AcDbSpline
210
0.0
220
0.0
230
1.0
 70
     8
 71
     3
 72
     8
 73
     4
 74
     0
 42
0.0000000001
 43
0.0000000001
 40
0.0
 40
0.0
 40
0.0
 40
0.0
 40
1.0
 40
1.0
 40
1.0
 40
1.0
 10
162.8749202324821
 20
-45.66856038931594
 30
0.0
 10
162.8676855271904
 20
-45.44807413280639
 30
0.0
 10
162.6868178948974
 20
-45.27340767647773
 30
0.0
 10
162.4663316383879
 20
-45.27340767647773
 30
0.0
  0
POLYLINE
  5
366
330
B5
100
AcDbEntity
  8
Layer 1
 62
     7
420
 16777215
370
    25
100
AcDb2dPolyline
 66
     1
 10
0.0
 20
0.0
 30
0.0
  0
VERTEX
  5
367
330
366
100
AcDbEntity
  8
Layer 1
 62
     7
420
 16777215
370
    25
100
AcDbVertex
100
AcDb2dVertex
 10
84.1136120546257
 20
-132.6707146591046
 30
0.0
  0
VERTEX
  5
368
330
366
100
AcDbEntity
  8
Layer 1
 62
     7
420
 16777215
370
    25
100
AcDbVertex
100
AcDb2dVertex
 10
64.98591253775872
 20
-132.0028824587237
 30
0.0
  0
SEQEND
  5
369
330
366
100
AcDbEntity
  8
Layer 1
370
    25
  0
POLYLINE
  5
36A
330
B5
100
AcDbEntity
  8
Layer 1
 62
     7
420
 16777215
370
    25
100
AcDb2dPolyline
 66
     1
 10
0.0
 20
0.0
 30
0.0
  0
VERTEX
  5
36B
330
36A
100
AcDbEntity
  8
Layer 1
 62
     7
420
 16777215
370
    25
100
AcDbVertex
100
AcDb2dVertex
 10
101.1690852700787
 20
-58.34738141305444
 30
0.0
  0
VERTEX
  5
36C
330
36A
100
AcDbEntity
  8
Layer 1
 62
     7
420
 16777215
370
    25
100
AcDbVertex
100
AcDb2dVertex
 10
101.1690852700787
 20
-76.20228956324249
 30
0.0
  0
SEQEND
  5
36D
330
36A
100
AcDbEntity
  8
Layer 1
370
    25
  0
POLYLINE
  5
36E
330
B5
100
AcDbEntity
  8
Layer 1
 62
     7
420
 16777215
370
    25
100
AcDb2dPolyline
 66
     1
 10
0.0
 20
0.0
 30
0.0
  0
VERTEX
  5
36F
330
36E
100
AcDbEntity
  8
Layer 1
 62
     7
420
 16777215
370
    25
100
AcDbVertex
100
AcDb2dVertex
 10
101.1690852700787
 20
-153.6055402049104
 30
0.0
  0
VERTEX
  5
370
330
36E
100
AcDbEntity
  8
Layer 1
 62
     7
420
 16777215
370
    25
100
AcDbVertex
100
AcDb2dVertex
 10
101.1690852700787
 20
-185.4103381966369
 30
0.0
  0
SEQEND
  5
371
330
36E
100
AcDbEntity
  8
Layer 1
370
    25
  0
POLYLINE
  5
372
330
B5
100
AcDbEntity
  8
Layer 1
 62
     7
420
 16777215
370
    25
100
AcDb2dPolyline
 66
     1
 10
0.0
 20
0.0
 30
0.0
  0
VERTEX
  5
373
330
372
100
AcDbEntity
  8
Layer 1
 62
     7
420
 16777215
370
    25
100
AcDbVertex
100
AcDb2dVertex
 10
85.42206018309956
 20
-131.3479693749352
 30
0.0
  0
VERTEX
  5
374
330
372
100
AcDbEntity
  8
Layer 1
 62
     7
420
 16777215
370
    25
100
AcDbVertex
100
AcDb2dVertex
 10
84.83501552514288
 20
-132.2871030237556
 30
0.0
  0
SEQEND
  5
375
330
372
100
AcDbEntity
  8
Layer 1
370
    25
  0
POLYLINE
  5
376
330
B5
100
AcDbEntity
  8
Layer 1
 62
     7
420
 16777215
370
    25
100
AcDb2dPolyline
 66
     1
 10
0.0
 20
0.0
 30
0.0
  0
VERTEX
  5
377
330
376
100
AcDbEntity
  8
Layer 1
 62
     7
420
 16777215
370
    25
100
AcDbVertex
100
AcDb2dVertex
 10
162.0446516728134
 20
-78.19424508689593
 30
0.0
  0
VERTEX
  5
378
330
376
100
AcDbEntity
  8
Layer 1
 62
     7
420
 16777215
370
    25
100
AcDbVertex
100
AcDb2dVertex
 10
160.206347509165
 20
-79.25567970612393
 30
0.0
  0
SEQEND
  5
379
330
376
100
AcDbEntity
  8
Layer 1
370
    25
  0
POLYLINE
  5
37A
330
B5
100
AcDbEntity
  8
Layer 1
 62
     7
420
 16777215
370
    25
100
AcDb2dPolyline
 66
     1
 10
0.0
 20
0.0
 30
0.0
  0
VERTEX
  5
37B
330
37A
100
AcDbEntity
  8
Layer 1
 62
     7
420
 16777215
370
    25
100
AcDbVertex
100
AcDb2dVertex
 10
160.206347509165
 20
-151.8364825061971
 30
0.0
  0
VERTEX
  5
37C
330
37A
100
AcDbEntity
  8
Layer 1
 62
     7
420
 16777215
370
    25
100
AcDbVertex
100
AcDb2dVertex
 10
162.0446516728134
 20
-152.8979171254251
 30
0.0
  0
SEQEND
  5
37D
330
37A
100
AcDbEntity
  8
Layer 1
370
    25
  0
POLYLINE
  5
37E
330
B5
100
AcDbEntity
  8
Layer 1
 62
     7
420
 16777215
370
    25
100
AcDb2dPolyline
 66
     1
 10
0.0
 20
0.0
 30
0.0
  0
VERTEX
  5
37F
330
37E
100
AcDbEntity
  8
Layer 1
 62
     7
420
 16777215
370
    25
100
AcDbVertex
100
AcDb2dVertex
 10
87.68049401833134
 20
-73.23933323650753
 30
0.0
  0
VERTEX
  5
380
330
37E
100
AcDbEntity
  8
Layer 1
 62
     7
420
 16777215
370
    25
100
AcDbVertex
100
AcDb2dVertex
 10
86.94531015678231
 20
-71.85664325134961
 30
0.0
  0
SEQEND
  5
381
330
37E
100
AcDbEntity
  8
Layer 1
370
    25
  0
POLYLINE
  5
382
330
B5
100
AcDbEntity
  8
Layer 1
  6
AI-Linetype-1
 62
     7
420
 16777215
370
    25
100
AcDb2dPolyline
 66
     1
 10
0.0
 20
0.0
 30
0.0
  0
VERTEX
  5
383
330
382
100
AcDbEntity
  8
Layer 1
  6
AI-Linetype-1
 62
     7
420
 16777215
370
    25
100
AcDbVertex
100
AcDb2dVertex
 10
50.94782819361643
 20
-100.8516195116826
 30
0.0
  0
VERTEX
  5
384
330
382
100
AcDbEntity
  8
Layer 1
  6
AI-Linetype-1
 62
     7
420
 16777215
370
    25
100
AcDbVertex
100
AcDb2dVertex
 10
179.0069349939135
 20
-105.3237009112926
 30
0.0
  0
SEQEND
  5
385
330
382
100
AcDbEntity
  8
Layer 1
  6
AI-Linetype-1
370
    25
  0
POLYLINE
  5
387
330
B5
100
AcDbEntity
  8
Layer 1
  6
AI-Linetype-2
 62
     7
420
 16777215
370
    25
100
AcDb2dPolyline
 66
     1
 10
0.0
 20
0.0
 30
0.0
  0
VERTEX
  5
388
330
387
100
AcDbEntity
  8
Layer 1
  6
AI-Linetype-2
 62
     7
420
 16777215
370
    25
100
AcDbVertex
100
AcDb2dVertex
 10
131.8111627684932
 20
-187.8618697612025
 30
0.0
  0
VERTEX
  5
389
330
387
100
AcDbEntity
  8
Layer 1
  6
AI-Linetype-2
 62
     7
420
 16777215
370
    25
100
AcDbVertex
100
AcDb2dVertex
 10
131.8111627684932
 20
-43.23046470600645
 30
0.0
  0
SEQEND
  5
38A
330
387
100
AcDbEntity
  8
Layer 1
  6
AI-Linetype-2
370
    25
  0
POLYLINE
  5
38C
330
B5
100
AcDbEntity
  8
Layer 1
 62
     7
420
 16777215
370
    25
100
AcDb2dPolyline
 66
     1
 10
0.0
 20
0.0
 30
0.0
  0
VERTEX
  5
38D
330
38C
100
AcDbEntity
  8
Layer 1
 62
     7
420
 16777215
370
    25
100
AcDbVertex
100
AcDb2dVertex
 10
102.9362481650252
 20
-152.1134683659372
 30
0.0
  0
VERTEX
  5
38E
330
38C
100
AcDbEntity
  8
Layer 1
 62
     7
420
 16777215
370
    25
100
AcDbVertex
100
AcDb2dVertex
 10
101.5775016092851
 20
-152.8979171254251
 30
0.0
  0
SEQEND
  5
38F
330
38C
100
AcDbEntity
  8
Layer 1
370
    25
  0
POLYLINE
  5
390
330
B5
100
AcDbEntity
  8
Layer 1
 62
     7
420
 16777215
370
    25
100
AcDb2dPolyline
 66
     1
 10
0.0
 20
0.0
 30
0.0
  0
VERTEX
  5
391
330
390
100
AcDbEntity
  8
Layer 1
 62
     7
420
 16777215
370
    25
100
AcDbVertex
100
AcDb2dVertex
 10
86.25215648788043
 20
-71.42359446317383
 30
0.0
  0
VERTEX
  5
392
330
390
100
AcDbEntity
  8
Layer 1
 62
     7
420
 16777215
370
    25
100
AcDbVertex
100
AcDb2dVertex
 10
67.12480148078923
 20
-70.75559000790506
 30
0.0
  0
SEQEND
  5
393
330
390
100
AcDbEntity
  8
Layer 1
370
    25
  0
POLYLINE
  5
394
330
B5
100
AcDbEntity
  8
Layer 1
 62
     7
420
 16777215
370
    25
100
AcDb2dPolyline
 66
     1
 10
0.0
 20
0.0
 30
0.0
  0
VERTEX
  5
395
330
394
100
AcDbEntity
  8
Layer 1
 62
     7
420
 16777215
370
    25
100
AcDbVertex
100
AcDb2dVertex
 10
160.0020532121179
 20
-79.6093189909787
 30
0.0
  0
VERTEX
  5
396
330
394
100
AcDbEntity
  8
Layer 1
 62
     7
420
 16777215
370
    25
100
AcDbVertex
100
AcDb2dVertex
 10
160.0020532121179
 20
-151.4826709664544
 30
0.0
  0
SEQEND
  5
397
330
394
100
AcDbEntity
  8
Layer 1
370
    25
  0
POLYLINE
  5
398
330
B5
100
AcDbEntity
  8
Layer 1
 62
     7
420
 16777215
370
    25
100
AcDb2dPolyline
 66
     1
 10
0.0
 20
0.0
 30
0.0
  0
VERTEX
  5
399
330
398
100
AcDbEntity
  8
Layer 1
 62
     7
420
 16777215
370
    25
100
AcDbVertex
100
AcDb2dVertex
 10
162.4532402669076
 20
-58.34738141305444
 30
0.0
  0
VERTEX
  5
39A
330
398
100
AcDbEntity
  8
Layer 1
 62
     7
420
 16777215
370
    25
100
AcDbVertex
100
AcDb2dVertex
 10
162.4532402669076
 20
-77.4866220074106
 30
0.0
  0
SEQEND
  5
39B
330
398
100
AcDbEntity
  8
Layer 1
370
    25
  0
POLYLINE
  5
39C
330
B5
100
AcDbEntity
  8
Layer 1
 62
     7
420
 16777215
370
    25
100
AcDb2dPolyline
 66
     1
 10
0.0
 20
0.0
 30
0.0
  0
VERTEX
  5
39D
330
39C
100
AcDbEntity
  8
Layer 1
 62
     7
420
 16777215
370
    25
100
AcDbVertex
100
AcDb2dVertex
 10
162.4532402669076
 20
-153.6055402049104
 30
0.0
  0
VERTEX
  5
39E
330
39C
100
AcDbEntity
  8
Layer 1
 62
     7
420
 16777215
370
    25
100
AcDbVertex
100
AcDb2dVertex
 10
162.4532402669076
 20
-185.4103381966369
 30
0.0
  0
SEQEND
  5
39F
330
39C
100
AcDbEntity
  8
Layer 1
370
    25
  0
POLYLINE
  5
3A0
330
B5
100
AcDbEntity
  8
Layer 1
370
     0
100
AcDb2dPolyline
 66
     1
 10
0.0
 20
0.0
 30
0.0
  0
VERTEX
  5
3A1
330
3A0
100
AcDbEntity
  8
Layer 1
370
     0
100
AcDbVertex
100
AcDb2dVertex
 10
-41.52221298272115
 20
1.508263798435627
 30
0.0
  0
VERTEX
  5
3A2
330
3A0
100
AcDbEntity
  8
Layer 1
370
     0
100
AcDbVertex
100
AcDb2dVertex
 10
301.6706741954669
 20
1.508263798435627
 30
0.0
  0
VERTEX
  5
3A3
330
3A0
100
AcDbEntity
  8
Layer 1
370
     0
100
AcDbVertex
100
AcDb2dVertex
 10
301.6706741954669
 20
-241.1782026634176
 30
0.0
  0
VERTEX
  5
3A4
330
3A0
100
AcDbEntity
  8
Layer 1
370
     0
100
AcDbVertex
100
AcDb2dVertex
 10
-41.52221298272115
 20
-241.1782026634176
 30
0.0
  0
VERTEX
  5
3A5
330
3A0
100
AcDbEntity
  8
Layer 1
370
     0
100
AcDbVertex
100
AcDb2dVertex
 10
-41.52221298272115
 20
1.508263798435627
 30
0.0
  0
SEQEND
  5
3A6
330
3A0
100
AcDbEntity
  8
Layer 1
370
     0
  0
ENDBLK
  5
B8
330
B5
100
AcDbEntity
  8
0
100
AcDbBlockEnd
  0
ENDSEC
  0
SECTION
  2
ENTITIES
  0
INSERT
  5
3D
330
1F
100
AcDbEntity
  8
Layer 1
100
AcDbBlockReference
  2
block 2
 10
0.0
 20
0.0
 30
0.0
  0
MTEXT
  5
4C
330
1F
100
AcDbEntity
  8
Layer 1
 62
    18
420
    65793
100
AcDbMText
 10
133.9591812205823
 20
-260.1055697456591
 30
0.0
 40
3.920669683827083
 41
0.0
 71
     7
 72
     1
  1
\fArial|b0|i0|c0|p34;\W0.978972;104.65.85
 73
     1
 44
1.0
  0
MTEXT
  5
4D
330
1F
100
AcDbEntity
  8
Layer 1
 62
    18
420
    65793
100
AcDbMText
 10
195.9998796850596
 20
-280.3944394618471
 30
0.0
 40
2.63876917007248
 41
0.0
 71
     7
 72
     1
  1
\fCentury Gothic|b0|i0|c0|p34;\W0.990688;A4
 73
     1
 44
1.0
  0
MTEXT
  5
4E
330
1F
100
AcDbEntity
  8
Layer 1
 62
    18
420
    65793
100
AcDbMText
 10
164.0283389618477
 20
-289.6252343945296
 30
0.0
 40
1.360006220349461
 41
0.0
 71
     7
 72
     1
  1
\fCentury Gothic|b0|i0|c0|p34;\W0.968579;SHEET 1 OF 1
 73
     1
 44
1.0
  0
MTEXT
  5
4F
330
1F
100
AcDbEntity
  8
Layer 1
 62
    18
420
    65793
100
AcDbMText
 10
14.37983804173209
 20
-289.6252343945296
 30
0.0
 40
1.360007461723616
 41
0.0
 71
     7
 72
     1
  1
\fCentury Gothic|b0|i0|c0|p34;\W0.97601;SCALE:
 73
     1
 44
1.0
  0
MTEXT
  5
50
330
1F
100
AcDbEntity
  8
Layer 1
 62
    18
420
    65793
100
AcDbMText
 10
92.70413556899108
 20
-258.0150844261279
 30
0.0
 40
1.360002582392795
 41
0.0
 71
     7
 72
     1
  1
\fCentury Gothic|b0|i0|c0|p34;\W0.980594;CONTACT:
 73
     1
 44
1.0
  0
MTEXT
  5
51
330
1F
100
AcDbEntity
  8
Layer 1
 62
    18
420
    65793
100
AcDbMText
 10
12.30502791699966
 20
-279.6992187342904
 30
0.0
 40
1.401043046795339
 41
0.0
 71
     7
 72
     1
  1
\fArial|b0|i0|c0|p34;\W0.978962;Disclaimer: This information is intended solely as a guide for use fo Marley NZ products. Before using you should ensure that the product is suitable for use in the specific application. 
 73
     1
 44
1.0
  0
MTEXT
  5
52
330
1F
100
AcDbEntity
  8
Layer 1
 62
    18
420
    65793
100
AcDbMText
 10
12.30502791699966
 20
-282.1982926479158
 30
0.0
 40
1.401046053346698
 41
0.0
 71
     7
 72
     1
  1
\fArial|b0|i0|c0|p34;\W0.980854;Marley NZ makes no warranty regarding the use of this information with non-Marley NZ products. This drawing is the property of Marley NZ Ltd.
 73
     1
 44
1.0
  0
MTEXT
  5
53
330
1F
100
AcDbEntity
  8
Layer 1
 62
    18
420
    65793
100
AcDbMText
 10
87.19663003822562
 20
-263.391503987203
 30
0.0
 40
2.159002374990015
 41
0.0
 71
     7
 72
     1
  1
\fArial,Bold|b0|i0|c0|p34;\W0.984785;0800 MARLEY
 73
     1
 44
1.0
  0
MTEXT
  5
54
330
1F
100
AcDbEntity
  8
Layer 1
 62
    18
420
    65793
100
AcDbMText
 10
85.09804873896326
 20
-266.5665060809404
 30
0.0
 40
2.158997867676741
 41
0.0
 71
     7
 72
     1
  1
\fArial|b0|i0|c0|p34;\W0.979154;www.marley.co.nz
 73
     1
 44
1.0
  0
MTEXT
  5
55
330
1F
100
AcDbEntity
  8
Layer 1
 62
    18
420
    65793
100
AcDbMText
 10
122.1442184596527
 20
-259.3696968645585
 30
0.0
 40
1.360004643435278
 41
0.0
 71
     7
 72
     1
  1
\fCentury Gothic|b0|i0|c0|p34;\W0.979211;DWG NO.
 73
     1
 44
1.0
  0
MTEXT
  5
56
330
1F
100
AcDbEntity
  8
Layer 1
 62
    18
420
    65793
100
AcDbMText
 10
128.9875606460678
 20
-289.6748438022443
 30
0.0
 40
1.360000406379835
 41
0.0
 71
     7
 72
     1
  1
\fCentury Gothic|b0|i0|c0|p34;\W0.971081;DATE: 30/06/11
 73
     1
 44
1.0
  0
POLYLINE
  5
57
330
1F
100
AcDbEntity
  8
Layer 1
 62
     9
420
 12631999
370
    50
100
AcDb2dPolyline
 66
     1
 10
0.0
 20
0.0
 30
0.0
  0
VERTEX
  5
58
330
57
100
AcDbEntity
  8
Layer 1
 62
     9
420
 12631999
370
    50
100
AcDbVertex
100
AcDb2dVertex
 10
205.0697885524453
 20
-292.0099310625907
 30
0.0
  0
VERTEX
  5
59
330
57
100
AcDbEntity
  8
Layer 1
 62
     9
420
 12631999
370
    50
100
AcDbVertex
100
AcDb2dVertex
 10
205.0697885524453
 20
-4.990051847519608
 30
0.0
  0
SEQEND
  5
5A
330
57
100
AcDbEntity
  8
Layer 1
370
    50
  0
POLYLINE
  5
5B
330
1F
100
AcDbEntity
  8
Layer 1
 62
     9
420
 12631999
370
    50
100
AcDb2dPolyline
 66
     1
 10
0.0
 20
0.0
 30
0.0
  0
VERTEX
  5
5C
330
5B
100
AcDbEntity
  8
Layer 1
 62
     9
420
 12631999
370
    50
100
AcDbVertex
100
AcDb2dVertex
 10
205.0697885524453
 20
-283.5081188154928
 30
0.0
  0
VERTEX
  5
5D
330
5B
100
AcDbEntity
  8
Layer 1
 62
     9
420
 12631999
370
    50
100
AcDbVertex
100
AcDb2dVertex
 10
192.0524866739871
 20
-283.5081188154928
 30
0.0
  0
SEQEND
  5
5E
330
5B
100
AcDbEntity
  8
Layer 1
370
    50
  0
POLYLINE
  5
5F
330
1F
100
AcDbEntity
  8
Layer 1
 62
     9
420
 12631999
370
    50
100
AcDb2dPolyline
 66
     1
 10
0.0
 20
0.0
 30
0.0
  0
VERTEX
  5
60
330
5F
100
AcDbEntity
  8
Layer 1
 62
     9
420
 12631999
370
    50
100
AcDbVertex
100
AcDb2dVertex
 10
192.0524866739871
 20
-285.9775648883997
 30
0.0
  0
VERTEX
  5
61
330
5F
100
AcDbEntity
  8
Layer 1
 62
     9
420
 12631999
370
    50
100
AcDbVertex
100
AcDb2dVertex
 10
192.0524866739871
 20
-275.006306568395
 30
0.0
  0
SEQEND
  5
62
330
5F
100
AcDbEntity
  8
Layer 1
370
    50
  0
POLYLINE
  5
63
330
1F
100
AcDbEntity
  8
Layer 1
 62
     9
420
 12631999
370
    50
100
AcDb2dPolyline
 66
     1
 10
0.0
 20
0.0
 30
0.0
  0
VERTEX
  5
64
330
63
100
AcDbEntity
  8
Layer 1
 62
     9
420
 12631999
370
    50
100
AcDbVertex
100
AcDb2dVertex
 10
160.8667727493663
 20
-292.0099310625907
 30
0.0
  0
VERTEX
  5
65
330
63
100
AcDbEntity
  8
Layer 1
 62
     9
420
 12631999
370
    50
100
AcDbVertex
100
AcDb2dVertex
 10
160.8667727493663
 20
-285.9775648883997
 30
0.0
  0
SEQEND
  5
66
330
63
100
AcDbEntity
  8
Layer 1
370
    50
  0
POLYLINE
  5
67
330
1F
100
AcDbEntity
  8
Layer 1
 62
     9
420
 12631999
370
    50
100
AcDb2dPolyline
 66
     1
 10
0.0
 20
0.0
 30
0.0
  0
VERTEX
  5
68
330
67
100
AcDbEntity
  8
Layer 1
 62
     9
420
 12631999
370
    50
100
AcDbVertex
100
AcDb2dVertex
 10
116.8752859486261
 20
-253.8396259434784
 30
0.0
  0
VERTEX
  5
69
330
67
100
AcDbEntity
  8
Layer 1
 62
     9
420
 12631999
370
    50
100
AcDbVertex
100
AcDb2dVertex
 10
116.9107704555331
 20
-275.0414465655262
 30
0.0
  0
SEQEND
  5
6A
330
67
100
AcDbEntity
  8
Layer 1
370
    50
  0
POLYLINE
  5
6B
330
1F
100
AcDbEntity
  8
Layer 1
 62
     9
420
 12631999
370
    50
100
AcDb2dPolyline
 66
     1
 10
0.0
 20
0.0
 30
0.0
  0
VERTEX
  5
6C
330
6B
100
AcDbEntity
  8
Layer 1
 62
     9
420
 12631999
370
    50
100
AcDbVertex
100
AcDb2dVertex
 10
10.05417329683539
 20
-275.006306568395
 30
0.0
  0
VERTEX
  5
6D
330
6B
100
AcDbEntity
  8
Layer 1
 62
     9
420
 12631999
370
    50
100
AcDbVertex
100
AcDb2dVertex
 10
205.0697885524453
 20
-275.0765865626574
 30
0.0
  0
SEQEND
  5
6E
330
6B
100
AcDbEntity
  8
Layer 1
370
    50
  0
POLYLINE
  5
6F
330
1F
100
AcDbEntity
  8
Layer 1
 62
     9
420
 12631999
370
    50
100
AcDb2dPolyline
 66
     1
 10
0.0
 20
0.0
 30
0.0
  0
VERTEX
  5
70
330
6F
100
AcDbEntity
  8
Layer 1
 62
     9
420
 12631999
370
    50
100
AcDbVertex
100
AcDb2dVertex
 10
10.0894855488545
 20
-236.8360014492826
 30
0.0
  0
VERTEX
  5
71
330
6F
100
AcDbEntity
  8
Layer 1
 62
     9
420
 12631999
370
    50
100
AcDbVertex
100
AcDb2dVertex
 10
10.0894855488545
 20
-292.0809000764047
 30
0.0
  0
SEQEND
  5
72
330
6F
100
AcDbEntity
  8
Layer 1
370
    50
  0
POLYLINE
  5
73
330
1F
100
AcDbEntity
  8
Layer 1
 62
     9
420
 12631999
370
    50
100
AcDb2dPolyline
 66
     1
 10
0.0
 20
0.0
 30
0.0
  0
VERTEX
  5
74
330
73
100
AcDbEntity
  8
Layer 1
 62
     9
420
 12631999
370
    50
100
AcDbVertex
100
AcDb2dVertex
 10
79.72783035385258
 20
-275.0414465655262
 30
0.0
  0
VERTEX
  5
75
330
73
100
AcDbEntity
  8
Layer 1
 62
     9
420
 12631999
370
    50
100
AcDbVertex
100
AcDb2dVertex
 10
79.72783035385258
 20
-253.8396259434784
 30
0.0
  0
SEQEND
  5
76
330
73
100
AcDbEntity
  8
Layer 1
370
    50
  0
POLYLINE
  5
77
330
1F
100
AcDbEntity
  8
Layer 1
 62
     9
420
 12631999
370
    50
100
AcDb2dPolyline
 66
     1
 10
0.0
 20
0.0
 30
0.0
  0
VERTEX
  5
78
330
77
100
AcDbEntity
  8
Layer 1
 62
     9
420
 12631999
370
    50
100
AcDbVertex
100
AcDb2dVertex
 10
210.0441652051662
 20
-4.990051847519608
 30
0.0
  0
VERTEX
  5
79
330
77
100
AcDbEntity
  8
Layer 1
 62
     9
420
 12631999
370
    50
100
AcDbVertex
100
AcDb2dVertex
 10
210.0441652051662
 20
-0.0158474496866238
 30
0.0
  0
SEQEND
  5
7A
330
77
100
AcDbEntity
  8
Layer 1
370
    50
  0
POLYLINE
  5
7B
330
1F
100
AcDbEntity
  8
Layer 1
 62
     9
420
 12631999
370
    50
100
AcDb2dPolyline
 66
     1
 10
0.0
 20
0.0
 30
0.0
  0
VERTEX
  5
7C
330
7B
100
AcDbEntity
  8
Layer 1
 62
     9
420
 12631999
370
    50
100
AcDbVertex
100
AcDb2dVertex
 10
205.0697885524453
 20
-253.8396259434784
 30
0.0
  0
VERTEX
  5
7D
330
7B
100
AcDbEntity
  8
Layer 1
 62
     9
420
 12631999
370
    50
100
AcDbVertex
100
AcDb2dVertex
 10
10.0894855488545
 20
-253.8396259434784
 30
0.0
  0
SEQEND
  5
7E
330
7B
100
AcDbEntity
  8
Layer 1
370
    50
  0
POLYLINE
  5
7F
330
1F
100
AcDbEntity
  8
Layer 1
 62
     9
420
 12631999
370
    50
100
AcDb2dPolyline
 66
     1
 10
0.0
 20
0.0
 30
0.0
  0
VERTEX
  5
80
330
7F
100
AcDbEntity
  8
Layer 1
 62
     9
420
 12631999
370
    50
100
AcDbVertex
100
AcDb2dVertex
 10
10.05417329683539
 20
-285.9775648883997
 30
0.0
  0
VERTEX
  5
81
330
7F
100
AcDbEntity
  8
Layer 1
 62
     9
420
 12631999
370
    50
100
AcDbVertex
100
AcDb2dVertex
 10
205.0697885524453
 20
-285.9775648883997
 30
0.0
  0
SEQEND
  5
82
330
7F
100
AcDbEntity
  8
Layer 1
370
    50
  0
POLYLINE
  5
83
330
1F
100
AcDbEntity
  8
Layer 1
 62
     9
420
 12631999
370
    50
100
AcDb2dPolyline
 66
     1
 10
0.0
 20
0.0
 30
0.0
  0
VERTEX
  5
84
330
83
100
AcDbEntity
  8
Layer 1
 62
     9
420
 12631999
370
    50
100
AcDbVertex
100
AcDb2dVertex
 10
10.05417329683539
 20
-292.0099310625907
 30
0.0
  0
VERTEX
  5
85
330
83
100
AcDbEntity
  8
Layer 1
 62
     9
420
 12631999
370
    50
100
AcDbVertex
100
AcDb2dVertex
 10
10.05417329683539
 20
-4.990051847519608
 30
0.0
  0
SEQEND
  5
86
330
83
100
AcDbEntity
  8
Layer 1
370
    50
  0
POLYLINE
  5
87
330
1F
100
AcDbEntity
  8
Layer 1
 62
     9
420
 12631999
370
    50
100
AcDb2dPolyline
 66
     1
 10
0.0
 20
0.0
 30
0.0
  0
VERTEX
  5
88
330
87
100
AcDbEntity
  8
Layer 1
 62
     9
420
 12631999
370
    50
100
AcDbVertex
100
AcDb2dVertex
 10
205.0697885524453
 20
-292.0099310625907
 30
0.0
  0
VERTEX
  5
89
330
87
100
AcDbEntity
  8
Layer 1
 62
     9
420
 12631999
370
    50
100
AcDbVertex
100
AcDb2dVertex
 10
180.9751193430371
 20
-292.0099310625907
 30
0.0
  0
SEQEND
  5
8A
330
87
100
AcDbEntity
  8
Layer 1
370
    50
  0
POLYLINE
  5
8B
330
1F
100
AcDbEntity
  8
Layer 1
 62
     9
420
 12631999
370
    50
100
AcDb2dPolyline
 66
     1
 10
0.0
 20
0.0
 30
0.0
  0
VERTEX
  5
8C
330
8B
100
AcDbEntity
  8
Layer 1
 62
     9
420
 12631999
370
    50
100
AcDbVertex
100
AcDb2dVertex
 10
10.05417329683539
 20
-4.990051847519608
 30
0.0
  0
VERTEX
  5
8D
330
8B
100
AcDbEntity
  8
Layer 1
 62
     9
420
 12631999
370
    50
100
AcDbVertex
100
AcDb2dVertex
 10
205.0697885524453
 20
-4.990051847519608
 30
0.0
  0
SEQEND
  5
8E
330
8B
100
AcDbEntity
  8
Layer 1
370
    50
  0
POLYLINE
  5
8F
330
1F
100
AcDbEntity
  8
Layer 1
 62
     9
420
 12631999
370
    50
100
AcDb2dPolyline
 66
     1
 10
0.0
 20
0.0
 30
0.0
  0
VERTEX
  5
90
330
8F
100
AcDbEntity
  8
Layer 1
 62
     9
420
 12631999
370
    50
100
AcDbVertex
100
AcDb2dVertex
 10
205.0697885524453
 20
-262.1299091882374
 30
0.0
  0
VERTEX
  5
91
330
8F
100
AcDbEntity
  8
Layer 1
 62
     9
420
 12631999
370
    50
100
AcDbVertex
100
AcDb2dVertex
 10
116.9107704555331
 20
-262.1299091882374
 30
0.0
  0
SEQEND
  5
92
330
8F
100
AcDbEntity
  8
Layer 1
370
    50
  0
POLYLINE
  5
93
330
1F
100
AcDbEntity
  8
Layer 1
 62
     9
420
 12631999
370
    50
100
AcDb2dPolyline
 66
     1
 10
0.0
 20
0.0
 30
0.0
  0
VERTEX
  5
94
330
93
100
AcDbEntity
  8
Layer 1
 62
     9
420
 12631999
370
    50
100
AcDbVertex
100
AcDb2dVertex
 10
210.0441652051662
 20
-296.9846522250874
 30
0.0
  0
VERTEX
  5
95
330
93
100
AcDbEntity
  8
Layer 1
 62
     9
420
 12631999
370
    50
100
AcDbVertex
100
AcDb2dVertex
 10
210.0441652051662
 20
-0.0158474496866238
 30
0.0
  0
SEQEND
  5
96
330
93
100
AcDbEntity
  8
Layer 1
370
    50
  0
POLYLINE
  5
97
330
1F
100
AcDbEntity
  8
Layer 1
 62
     9
420
 12631999
370
    50
100
AcDb2dPolyline
 66
     1
 10
0.0
 20
0.0
 30
0.0
  0
VERTEX
  5
98
330
97
100
AcDbEntity
  8
Layer 1
 62
     9
420
 12631999
370
    50
100
AcDbVertex
100
AcDb2dVertex
 10
0.0706245040382146
 20
-0.0158474496866238
 30
0.0
  0
VERTEX
  5
99
330
97
100
AcDbEntity
  8
Layer 1
 62
     9
420
 12631999
370
    50
100
AcDbVertex
100
AcDb2dVertex
 10
210.0441652051662
 20
-0.0158474496866238
 30
0.0
  0
SEQEND
  5
9A
330
97
100
AcDbEntity
  8
Layer 1
370
    50
  0
POLYLINE
  5
9B
330
1F
100
AcDbEntity
  8
Layer 1
 62
     9
420
 12631999
370
    50
100
AcDb2dPolyline
 66
     1
 10
0.0
 20
0.0
 30
0.0
  0
VERTEX
  5
9C
330
9B
100
AcDbEntity
  8
Layer 1
 62
     9
420
 12631999
370
    50
100
AcDbVertex
100
AcDb2dVertex
 10
0.0706245040382146
 20
-296.9846522250874
 30
0.0
  0
VERTEX
  5
9D
330
9B
100
AcDbEntity
  8
Layer 1
 62
     9
420
 12631999
370
    50
100
AcDbVertex
100
AcDb2dVertex
 10
0.0706245040382146
 20
-0.0158474496866238
 30
0.0
  0
SEQEND
  5
9E
330
9B
100
AcDbEntity
  8
Layer 1
370
    50
  0
POLYLINE
  5
9F
330
1F
100
AcDbEntity
  8
Layer 1
 62
     9
420
 12631999
370
    50
100
AcDb2dPolyline
 66
     1
 10
0.0
 20
0.0
 30
0.0
  0
VERTEX
  5
A0
330
9F
100
AcDbEntity
  8
Layer 1
 62
     9
420
 12631999
370
    50
100
AcDbVertex
100
AcDb2dVertex
 10
0.0706245040382146
 20
-296.9846522250874
 30
0.0
  0
VERTEX
  5
A1
330
9F
100
AcDbEntity
  8
Layer 1
 62
     9
420
 12631999
370
    50
100
AcDbVertex
100
AcDb2dVertex
 10
210.0441652051662
 20
-296.9846522250874
 30
0.0
  0
SEQEND
  5
A2
330
9F
100
AcDbEntity
  8
Layer 1
370
    50
  0
POLYLINE
  5
A3
330
1F
100
AcDbEntity
  8
Layer 1
 62
     9
420
 12631999
370
    50
100
AcDb2dPolyline
 66
     1
 10
0.0
 20
0.0
 30
0.0
  0
VERTEX
  5
A4
330
A3
100
AcDbEntity
  8
Layer 1
 62
     9
420
 12631999
370
    50
100
AcDbVertex
100
AcDb2dVertex
 10
10.05417329683539
 20
-292.0099310625907
 30
0.0
  0
VERTEX
  5
A5
330
A3
100
AcDbEntity
  8
Layer 1
 62
     9
420
 12631999
370
    50
100
AcDbVertex
100
AcDb2dVertex
 10
205.0697885524453
 20
-292.0099310625907
 30
0.0
  0
SEQEND
  5
A6
330
A3
100
AcDbEntity
  8
Layer 1
370
    50
  0
INSERT
  5
A8
330
1F
100
AcDbEntity
  8
Layer 1
100
AcDbBlockReference
  2
block 3
 10
0.0
 20
0.0
 30
0.0
  0
SPLINE
  5
AC
330
1F
100
AcDbEntity
  8
Layer 1
 62
    18
420
    65793
370
    35
100
AcDbSpline
210
0.0
220
0.0
230
1.0
 70
    11
 71
     3
 72
    17
 73
    13
 74
     0
 42
0.0000000001
 43
0.0000000001
 40
0.0
 40
0.0
 40
0.0
 40
0.0
 40
1.0
 40
1.0
 40
1.0
 40
2.0
 40
2.0
 40
2.0
 40
3.0
 40
3.0
 40
3.0
 40
4.0
 40
4.0
 40
4.0
 40
4.0
 10
147.7161455876749
 20
-267.1149656440079
 30
0.0
 10
147.7161455876749
 20
-267.4181342467086
 30
0.0
 10
147.4505285505361
 20
-267.6634252070754
 30
0.0
 10
147.1228997537539
 20
-267.6634252070754
 30
0.0
 10
146.7956154667475
 20
-267.6634252070754
 30
0.0
 10
146.5299984296087
 20
-267.4181342467086
 30
0.0
 10
146.5299984296087
 20
-267.1149656440079
 30
0.0
 10
146.5299984296087
 20
-266.8117970413073
 30
0.0
 10
146.7956154667475
 20
-266.5665060809404
 30
0.0
 10
147.1228997537539
 20
-266.5665060809404
 30
0.0
 10
147.4505285505361
 20
-266.5665060809404
 30
0.0
 10
147.7161455876749
 20
-266.8117970413073
 30
0.0
 10
147.7161455876749
 20
-267.1149656440079
 30
0.0
  0
INSERT
  5
AE
330
1F
100
AcDbEntity
  8
Layer 1
100
AcDbBlockReference
  2
block 4
 10
0.0
 20
0.0
 30
0.0
  0
ENDSEC
  0
SECTION
  2
OBJECTS
  0
DICTIONARY
  5
C
330
0
100
AcDbDictionary
281
     1
  3
ACAD_GROUP
350
D
  3
ACAD_IMAGE_DICT
350
40
  3
ACAD_IMAGE_VARS
350
42
  3
ACAD_LAYOUT
350
1A
  3
ACAD_MLINESTYLE
350
17
  3
ACAD_PLOTSETTINGS
350
19
  3
ACAD_PLOTSTYLENAME
350
E
  3
ACAD_TABLESTYLE
350
3AE
  3
ACAD_VISUALSTYLE
350
2A
  0
IMAGEDEF_REACTOR
  5
44
330
43
100
AcDbRasterImageDefReactor
 90
        2
330
43
  0
DICTIONARY
  5
D
102
{ACAD_REACTORS
330
C
102
}
330
C
100
AcDbDictionary
281
     1
  0
DICTIONARY
  5
40
102
{ACAD_REACTORS
330
C
102
}
330
C
100
AcDbDictionary
281
     1
  3
D:\dwv\New files\PDF\104.65.85 plain junction_1.png
350
41
  0
RASTERVARIABLES
  5
42
102
{ACAD_REACTORS
330
C
102
}
330
C
100
AcDbRasterVariables
 90
        0
 70
     0
 71
     1
 72
     0
  0
DICTIONARY
  5
1A
102
{ACAD_REACTORS
330
C
102
}
330
C
100
AcDbDictionary
281
     1
  3
Layout1
350
1E
  3
Layout2
350
26
  3
Model
350
22
  0
DICTIONARY
  5
17
102
{ACAD_REACTORS
330
C
102
}
330
C
100
AcDbDictionary
281
     1
  3
Standard
350
18
  0
DICTIONARY
  5
19
102
{ACAD_REACTORS
330
C
102
}
330
C
100
AcDbDictionary
281
     1
  0
ACDBDICTIONARYWDFLT
  5
E
102
{ACAD_REACTORS
330
C
102
}
330
C
100
AcDbDictionary
281
     1
  3
Normal
350
F
100
AcDbDictionaryWithDefault
340
F
  0
DICTIONARY
  5
3AE
102
{ACAD_REACTORS
330
C
102
}
330
C
100
AcDbDictionary
281
     1
  0
DICTIONARY
  5
2A
102
{ACAD_REACTORS
330
C
102
}
330
C
100
AcDbDictionary
281
     1
  3
2dWireframe
350
2F
  3
3D Hidden
350
31
  3
3dWireframe
350
30
  3
Basic
350
32
  3
Brighten
350
36
  3
ColorChange
350
3A
  3
Conceptual
350
34
  3
Dim
350
35
  3
Facepattern
350
39
  3
Flat
350
2B
  3
FlatWithEdges
350
2C
  3
Gouraud
350
2D
  3
GouraudWithEdges
350
2E
  3
Linepattern
350
38
  3
Realistic
350
33
  3
Thicken
350
37
  0
IMAGEDEF
  5
41
102
{ACAD_REACTORS
330
40
330
44
102
}
330
40
100
AcDbRasterImageDef
 90
        0
  1
D:\dwv\New files\PDF\104.65.85 plain junction_1.png
 10
251.0
 20
40.0
 11
0.3527777777777777
 21
0.3527777777777777
280
     1
281
     5
  0
LAYOUT
  5
1E
102
{ACAD_REACTORS
330
1A
102
}
330
1A
100
AcDbPlotSettings
  1

  2
none_device
  4

  6

 40
0.0
 41
0.0
 42
0.0
 43
0.0
 44
0.0
 45
0.0
 46
0.0
 47
0.0
 48
0.0
 49
0.0
140
0.0
141
0.0
142
1.0
143
1.0
 70
   688
 72
     0
 73
     0
 74
     5
  7

 75
    16
 76
     0
 77
     2
 78
   300
147
1.0
148
0.0
149
0.0
100
AcDbLayout
  1
Layout1
 70
     1
 71
     1
 10
0.0
 20
0.0
 11
12.0
 21
9.0
 12
0.0
 22
0.0
 32
0.0
 14
1.000000000000000E+20
 24
1.000000000000000E+20
 34
1.000000000000000E+20
 15
-1.000000000000000E+20
 25
-1.000000000000000E+20
 35
-1.000000000000000E+20
146
0.0
 13
0.0
 23
0.0
 33
0.0
 16
1.0
 26
0.0
 36
0.0
 17
0.0
 27
1.0
 37
0.0
 76
     0
330
1B
  0
LAYOUT
  5
26
102
{ACAD_REACTORS
330
1A
102
}
330
1A
100
AcDbPlotSettings
  1

  2
none_device
  4

  6

 40
0.0
 41
0.0
 42
0.0
 43
0.0
 44
0.0
 45
0.0
 46
0.0
 47
0.0
 48
0.0
 49
0.0
140
0.0
141
0.0
142
1.0
143
1.0
 70
   688
 72
     0
 73
     0
 74
     5
  7

 75
    16
 76
     0
 77
     2
 78
   300
147
1.0
148
0.0
149
0.0
100
AcDbLayout
  1
Layout2
 70
     1
 71
     2
 10
0.0
 20
0.0
 11
0.0
 21
0.0
 12
0.0
 22
0.0
 32
0.0
 14
0.0
 24
0.0
 34
0.0
 15
0.0
 25
0.0
 35
0.0
146
0.0
 13
0.0
 23
0.0
 33
0.0
 16
1.0
 26
0.0
 36
0.0
 17
0.0
 27
1.0
 37
0.0
 76
     0
330
23
  0
LAYOUT
  5
22
102
{ACAD_REACTORS
330
1A
102
}
330
1A
100
AcDbPlotSettings
  1

  2
none_device
  4

  6

 40
0.0
 41
0.0
 42
0.0
 43
0.0
 44
0.0
 45
0.0
 46
0.0
 47
0.0
 48
0.0
 49
0.0
140
0.0
141
0.0
142
1.0
143
1.0
 70
  1712
 72
     0
 73
     0
 74
     0
  7

 75
     0
 76
     0
 77
     2
 78
   300
147
1.0
148
0.0
149
0.0
100
AcDbLayout
  1
Model
 70
     1
 71
     0
 10
0.0
 20
0.0
 11
12.0
 21
9.0
 12
0.0
 22
0.0
 32
0.0
 14
1.000000000000000E+20
 24
1.000000000000000E+20
 34
1.000000000000000E+20
 15
-1.000000000000000E+20
 25
-1.000000000000000E+20
 35
-1.000000000000000E+20
146
0.0
 13
0.0
 23
0.0
 33
0.0
 16
1.0
 26
0.0
 36
0.0
 17
0.0
 27
1.0
 37
0.0
 76
     0
330
1F
331
29
  0
MLINESTYLE
  5
18
102
{ACAD_REACTORS
330
17
102
}
330
17
100
AcDbMlineStyle
  2
Standard
 70
     0
  3

 62
   256
 51
90.0
 52
90.0
 71
     2
 49
0.5
 62
   256
  6
BYLAYER
 49
-0.5
 62
   256
  6
BYLAYER
  0
ACDBPLACEHOLDER
  5
F
102
{ACAD_REACTORS
330
E
102
}
330
E
  0
VISUALSTYLE
  5
2F
102
{ACAD_REACTORS
330
2A
102
}
330
2A
100
AcDbVisualStyle
  2
2dWireframe
 70
     4
 71
     0
 72
     2
 73
     0
 90
        0
 40
-0.6
 41
-30.0
 62
     5
 63
     7
421
 16777215
 74
     1
 91
        4
 64
     7
 65
   257
 75
     1
175
     1
 42
1.0
 92
        0
 66
   257
 43
1.0
 76
     1
 77
     6
 78
     2
 67
     7
 79
     5
170
     0
171
     0
290
     0
174
     0
 93
        1
 44
0.0
173
     0
291
     0
 45
0.0
1001
ACAD
1000
AcDbSavedByObjectVersion
1070
     0
  0
VISUALSTYLE
  5
31
102
{ACAD_REACTORS
330
2A
102
}
330
2A
100
AcDbVisualStyle
  2
3D Hidden
 70
     6
 71
     1
 72
     2
 73
     2
 90
        0
 40
-0.6
 41
-30.0
 62
     5
 63
     7
421
 16777215
 74
     2
 91
        2
 64
     7
 65
   257
 75
     2
175
     1
 42
40.0
 92
        0
 66
   257
 43
1.0
 76
     1
 77
     6
 78
     2
 67
     7
 79
     3
170
     0
171
     0
290
     0
174
     0
 93
        1
 44
0.0
173
     0
291
     0
 45
0.0
1001
ACAD
1000
AcDbSavedByObjectVersion
1070
     0
  0
VISUALSTYLE
  5
30
102
{ACAD_REACTORS
330
2A
102
}
330
2A
100
AcDbVisualStyle
  2
3dWireframe
 70
     5
 71
     0
 72
     2
 73
     0
 90
        0
 40
-0.6
 41
-30.0
 62
     5
 63
     7
421
 16777215
 74
     1
 91
        4
 64
     7
 65
   257
 75
     1
175
     1
 42
1.0
 92
        0
 66
   257
 43
1.0
 76
     1
 77
     6
 78
     2
 67
     7
 79
     5
170
     0
171
     0
290
     0
174
     0
 93
        1
 44
0.0
173
     0
291
     0
 45
0.0
1001
ACAD
1000
AcDbSavedByObjectVersion
1070
     0
  0
VISUALSTYLE
  5
32
102
{ACAD_REACTORS
330
2A
102
}
330
2A
100
AcDbVisualStyle
  2
Basic
 70
     7
 71
     1
 72
     0
 73
     1
 90
        0
 40
-0.6
 41
-30.0
 62
     5
 63
     7
421
 16777215
 74
     0
 91
        4
 64
     7
 65
   257
 75
     1
175
     1
 42
1.0
 92
        8
 66
     7
 43
1.0
 76
     1
 77
     6
 78
     2
 67
     7
 79
     5
170
     0
171
     0
290
     0
174
     0
 93
        1
 44
0.0
173
     0
291
     1
 45
0.0
1001
ACAD
1000
AcDbSavedByObjectVersion
1070
     0
  0
VISUALSTYLE
  5
36
102
{ACAD_REACTORS
330
2A
102
}
330
2A
100
AcDbVisualStyle
  2
Brighten
 70
    12
 71
     2
 72
     2
 73
     0
 90
        0
 40
-0.6
 41
-30.0
 62
     5
 63
     7
421
 16777215
 74
     1
 91
        4
 64
     7
 65
   257
 75
     1
175
     1
 42
1.0
 92
        8
 66
     7
 43
1.0
 76
     1
 77
     6
 78
     2
 67
     7
 79
     5
170
     0
171
     0
290
     0
174
     0
 93
        1
 44
50.0
173
     0
291
     1
 45
0.0
1001
ACAD
1000
AcDbSavedByObjectVersion
1070
     0
  0
VISUALSTYLE
  5
3A
102
{ACAD_REACTORS
330
2A
102
}
330
2A
100
AcDbVisualStyle
  2
ColorChange
 70
    16
 71
     2
 72
     2
 73
     3
 90
        0
 40
-0.6
 41
-30.0
 62
     5
 63
     8
421
  8421504
 74
     1
 91
        4
 64
     7
 65
   257
 75
     1
175
     1
 42
1.0
 92
        8
 66
     8
424
  8421504
 43
1.0
 76
     1
 77
     6
 78
     2
 67
     7
 79
     5
170
     0
171
     0
290
     0
174
     0
 93
        1
 44
0.0
173
     0
291
     1
 45
0.0
1001
ACAD
1000
AcDbSavedByObjectVersion
1070
     0
  0
VISUALSTYLE
  5
34
102
{ACAD_REACTORS
330
2A
102
}
330
2A
100
AcDbVisualStyle
  2
Conceptual
 70
     9
 71
     3
 72
     2
 73
     0
 90
        0
 40
-0.6
 41
-30.0
 62
     5
 63
     7
421
 16777215
 74
     2
 91
        2
 64
     7
 65
   257
 75
     1
175
     1
 42
40.0
 92
        8
 66
     7
 43
1.0
 76
     1
 77
     6
 78
     2
 67
     7
 79
     3
170
     0
171
     0
290
     0
174
     0
 93
        1
 44
0.0
173
     0
291
     0
 45
0.0
1001
ACAD
1000
AcDbSavedByObjectVersion
1070
     0
  0
VISUALSTYLE
  5
35
102
{ACAD_REACTORS
330
2A
102
}
330
2A
100
AcDbVisualStyle
  2
Dim
 70
    11
 71
     2
 72
     2
 73
     0
 90
        0
 40
-0.6
 41
-30.0
 62
     5
 63
     7
421
 16777215
 74
     1
 91
        4
 64
     7
 65
   257
 75
     1
175
     1
 42
1.0
 92
        8
 66
     7
 43
1.0
 76
     1
 77
     6
 78
     2
 67
     7
 79
     5
170
     0
171
     0
290
     0
174
     0
 93
        1
 44
-50.0
173
     0
291
     1
 45
0.0
1001
ACAD
1000
AcDbSavedByObjectVersion
1070
     0
  0
VISUALSTYLE
  5
39
102
{ACAD_REACTORS
330
2A
102
}
330
2A
100
AcDbVisualStyle
  2
Facepattern
 70
    15
 71
     2
 72
     2
 73
     0
 90
        0
 40
-0.6
 41
-30.0
 62
     5
 63
     7
421
 16777215
 74
     1
 91
        4
 64
     7
 65
   257
 75
     1
175
     1
 42
1.0
 92
        8
 66
     7
 43
1.0
 76
     1
 77
     6
 78
     2
 67
     7
 79
     5
170
     0
171
     0
290
     0
174
     0
 93
        1
 44
0.0
173
     0
291
     1
 45
0.0
1001
ACAD
1000
AcDbSavedByObjectVersion
1070
     0
  0
VISUALSTYLE
  5
2B
102
{ACAD_REACTORS
330
2A
102
}
330
2A
100
AcDbVisualStyle
  2
Flat
 70
     0
 71
     2
 72
     1
 73
     1
 90
        2
 40
-0.6
 41
30.0
 62
     5
 63
     7
421
 16777215
 74
     0
 91
        4
 64
     7
 65
   257
 75
     1
175
     1
 42
1.0
 92
        8
 66
     7
 43
1.0
 76
     1
 77
     6
 78
     2
 67
     7
 79
     5
170
     0
171
     0
290
     0
174
     0
 93
       13
 44
0.0
173
     0
291
     1
 45
0.0
1001
ACAD
1000
AcDbSavedByObjectVersion
1070
     0
  0
VISUALSTYLE
  5
2C
102
{ACAD_REACTORS
330
2A
102
}
330
2A
100
AcDbVisualStyle
  2
FlatWithEdges
 70
     1
 71
     2
 72
     1
 73
     1
 90
        2
 40
-0.6
 41
30.0
 62
     5
 63
     7
421
 16777215
 74
     1
 91
        4
 64
     7
 65
   257
 75
     1
175
     1
 42
1.0
 92
        0
 66
   257
 43
1.0
 76
     1
 77
     6
 78
     2
 67
     7
 79
     5
170
     0
171
     0
290
     0
174
     0
 93
       13
 44
0.0
173
     0
291
     1
 45
0.0
1001
ACAD
1000
AcDbSavedByObjectVersion
1070
     0
  0
VISUALSTYLE
  5
2D
102
{ACAD_REACTORS
330
2A
102
}
330
2A
100
AcDbVisualStyle
  2
Gouraud
 70
     2
 71
     2
 72
     2
 73
     1
 90
        2
 40
-0.6
 41
30.0
 62
     5
 63
     7
421
 16777215
 74
     0
 91
        4
 64
     7
 65
   257
 75
     1
175
     1
 42
1.0
 92
        0
 66
     7
 43
1.0
 76
     1
 77
     6
 78
     2
 67
     7
 79
     5
170
     0
171
     0
290
     0
174
     0
 93
       13
 44
0.0
173
     0
291
     1
 45
0.0
1001
ACAD
1000
AcDbSavedByObjectVersion
1070
     0
  0
VISUALSTYLE
  5
2E
102
{ACAD_REACTORS
330
2A
102
}
330
2A
100
AcDbVisualStyle
  2
GouraudWithEdges
 70
     3
 71
     2
 72
     2
 73
     1
 90
        2
 40
-0.6
 41
30.0
 62
     5
 63
     7
421
 16777215
 74
     1
 91
        4
 64
     7
 65
   257
 75
     1
175
     1
 42
1.0
 92
        0
 66
   257
 43
1.0
 76
     1
 77
     6
 78
     2
 67
     7
 79
     5
170
     0
171
     0
290
     0
174
     0
 93
       13
 44
0.0
173
     0
291
     1
 45
0.0
1001
ACAD
1000
AcDbSavedByObjectVersion
1070
     0
  0
VISUALSTYLE
  5
38
102
{ACAD_REACTORS
330
2A
102
}
330
2A
100
AcDbVisualStyle
  2
Linepattern
 70
    14
 71
     2
 72
     2
 73
     0
 90
        0
 40
-0.6
 41
-30.0
 62
     5
 63
     7
421
 16777215
 74
     1
 91
        4
 64
     7
 65
   257
 75
     7
175
     7
 42
1.0
 92
        8
 66
     7
 43
1.0
 76
     1
 77
     6
 78
     2
 67
     7
 79
     5
170
     0
171
     0
290
     0
174
     0
 93
        1
 44
0.0
173
     0
291
     1
 45
0.0
1001
ACAD
1000
AcDbSavedByObjectVersion
1070
     0
  0
VISUALSTYLE
  5
33
102
{ACAD_REACTORS
330
2A
102
}
330
2A
100
AcDbVisualStyle
  2
Realistic
 70
     8
 71
     2
 72
     2
 73
     0
 90
        0
 40
-0.6
 41
-30.0
 62
     5
 63
     7
421
 16777215
 74
     1
 91
        0
 64
     7
 65
   257
 75
     1
175
     1
 42
1.0
 92
        8
 66
     8
424
  7895160
 43
1.0
 76
     1
 77
     6
 78
     2
 67
     7
 79
     5
170
     0
171
     0
290
     0
174
     0
 93
       13
 44
0.0
173
     0
291
     0
 45
0.0
1001
ACAD
1000
AcDbSavedByObjectVersion
1070
     0
  0
VISUALSTYLE
  5
37
102
{ACAD_REACTORS
330
2A
102
}
330
2A
100
AcDbVisualStyle
  2
Thicken
 70
    13
 71
     2
 72
     2
 73
     0
 90
        0
 40
-0.6
 41
-30.0
 62
     5
 63
     7
421
 16777215
 74
     1
 91
        4
 64
     7
 65
   257
 75
     1
175
     1
 42
1.0
 92
       12
 66
     7
 43
1.0
 76
     1
 77
     6
 78
     2
 67
     7
 79
     5
170
     0
171
     0
290
     0
174
     0
 93
        1
 44
0.0
173
     0
291
     1
 45
0.0
1001
ACAD
1000
AcDbSavedByObjectVersion
1070
     0
  0
ENDSEC
  0
EOF
