  0
SECTION
  2
HEADER
  9
$ACADVER
  1
AC1018
  9
$ACADMAINTVER
 70
     0
  9
$DWGCODEPAGE
  3
ANSI_1252
  9
$INSBASE
 10
0.0
 20
0.0
 30
0.0
  9
$EXTMIN
 10
1.000000000000000E+20
 20
1.000000000000000E+20
 30
1.000000000000000E+20
  9
$EXTMAX
 10
-1.000000000000000E+20
 20
-1.000000000000000E+20
 30
-1.000000000000000E+20
  9
$LIMMIN
 10
0.0
 20
0.0
  9
$LIMMAX
 10
12.0
 20
9.0
  9
$ORTHOMODE
 70
     0
  9
$REGENMODE
 70
     1
  9
$FILLMODE
 70
     1
  9
$QTEXTMODE
 70
     0
  9
$MIRRTEXT
 70
     1
  9
$LTSCALE
 40
1.0
  9
$ATTMODE
 70
     1
  9
$TEXTSIZE
 40
0.2
  9
$TRACEWID
 40
0.05
  9
$TEXTSTYLE
  7
Standard
  9
$CLAYER
  8
0
  9
$CELTYPE
  6
ByLayer
  9
$CECOLOR
 62
   256
  9
$CELTSCALE
 40
1.0
  9
$DISPSILH
 70
     0
  9
$DIMSCALE
 40
1.0
  9
$DIMASZ
 40
0.18
  9
$DIMEXO
 40
0.0625
  9
$DIMDLI
 40
0.38
  9
$DIMRND
 40
0.0
  9
$DIMDLE
 40
0.0
  9
$DIMEXE
 40
0.18
  9
$DIMTP
 40
0.0
  9
$DIMTM
 40
0.0
  9
$DIMTXT
 40
0.18
  9
$DIMCEN
 40
0.09
  9
$DIMTSZ
 40
0.0
  9
$DIMTOL
 70
     0
  9
$DIMLIM
 70
     0
  9
$DIMTIH
 70
     1
  9
$DIMTOH
 70
     1
  9
$DIMSE1
 70
     0
  9
$DIMSE2
 70
     0
  9
$DIMTAD
 70
     0
  9
$DIMZIN
 70
     0
  9
$DIMBLK
  1

  9
$DIMASO
 70
     1
  9
$DIMSHO
 70
     1
  9
$DIMPOST
  1

  9
$DIMAPOST
  1

  9
$DIMALT
 70
     0
  9
$DIMALTD
 70
     2
  9
$DIMALTF
 40
25.4
  9
$DIMLFAC
 40
1.0
  9
$DIMTOFL
 70
     0
  9
$DIMTVP
 40
0.0
  9
$DIMTIX
 70
     0
  9
$DIMSOXD
 70
     0
  9
$DIMSAH
 70
     0
  9
$DIMBLK1
  1

  9
$DIMBLK2
  1

  9
$DIMSTYLE
  2
Standard
  9
$DIMCLRD
 70
     0
  9
$DIMCLRE
 70
     0
  9
$DIMCLRT
 70
     0
  9
$DIMTFAC
 40
1.0
  9
$DIMGAP
 40
0.09
  9
$DIMJUST
 70
     0
  9
$DIMSD1
 70
     0
  9
$DIMSD2
 70
     0
  9
$DIMTOLJ
 70
     1
  9
$DIMTZIN
 70
     0
  9
$DIMALTZ
 70
     0
  9
$DIMALTTZ
 70
     0
  9
$DIMUPT
 70
     0
  9
$DIMDEC
 70
     4
  9
$DIMTDEC
 70
     4
  9
$DIMALTU
 70
     2
  9
$DIMALTTD
 70
     2
  9
$DIMTXSTY
  7
Standard
  9
$DIMAUNIT
 70
     0
  9
$DIMADEC
 70
     0
  9
$DIMALTRND
 40
0.0
  9
$DIMAZIN
 70
     0
  9
$DIMDSEP
 70
    46
  9
$DIMATFIT
 70
     3
  9
$DIMFRAC
 70
     0
  9
$DIMLDRBLK
  1

  9
$DIMLUNIT
 70
     2
  9
$DIMLWD
 70
    -2
  9
$DIMLWE
 70
    -2
  9
$DIMTMOVE
 70
     0
  9
$LUNITS
 70
     2
  9
$LUPREC
 70
     4
  9
$SKETCHINC
 40
0.1
  9
$FILLETRAD
 40
0.5
  9
$AUNITS
 70
     0
  9
$AUPREC
 70
     0
  9
$MENU
  1
.
  9
$ELEVATION
 40
0.0
  9
$PELEVATION
 40
0.0
  9
$THICKNESS
 40
0.0
  9
$LIMCHECK
 70
     0
  9
$CHAMFERA
 40
0.5
  9
$CHAMFERB
 40
0.5
  9
$CHAMFERC
 40
1.0
  9
$CHAMFERD
 40
0.0
  9
$SKPOLY
 70
     0
  9
$TDCREATE
 40
2456576.538746088
  9
$TDUCREATE
 40
2456575.997079421
  9
$TDUPDATE
 40
2456576.538746099
  9
$TDUUPDATE
 40
2456575.997079433
  9
$TDINDWG
 40
0.0000000116
  9
$TDUSRTIMER
 40
0.0000000116
  9
$USRTIMER
 70
     1
  9
$ANGBASE
 50
0.0
  9
$ANGDIR
 70
     0
  9
$PDMODE
 70
     0
  9
$PDSIZE
 40
0.0
  9
$PLINEWID
 40
0.0
  9
$SPLFRAME
 70
     0
  9
$SPLINETYPE
 70
     6
  9
$SPLINESEGS
 70
     8
  9
$HANDSEED
  5
352
  9
$SURFTAB1
 70
     6
  9
$SURFTAB2
 70
     6
  9
$SURFTYPE
 70
     6
  9
$SURFU
 70
     6
  9
$SURFV
 70
     6
  9
$UCSBASE
  2

  9
$UCSNAME
  2

  9
$UCSORG
 10
0.0
 20
0.0
 30
0.0
  9
$UCSXDIR
 10
1.0
 20
0.0
 30
0.0
  9
$UCSYDIR
 10
0.0
 20
1.0
 30
0.0
  9
$UCSORTHOREF
  2

  9
$UCSORTHOVIEW
 70
     0
  9
$UCSORGTOP
 10
0.0
 20
0.0
 30
0.0
  9
$UCSORGBOTTOM
 10
0.0
 20
0.0
 30
0.0
  9
$UCSORGLEFT
 10
0.0
 20
0.0
 30
0.0
  9
$UCSORGRIGHT
 10
0.0
 20
0.0
 30
0.0
  9
$UCSORGFRONT
 10
0.0
 20
0.0
 30
0.0
  9
$UCSORGBACK
 10
0.0
 20
0.0
 30
0.0
  9
$PUCSBASE
  2

  9
$PUCSNAME
  2

  9
$PUCSORG
 10
0.0
 20
0.0
 30
0.0
  9
$PUCSXDIR
 10
1.0
 20
0.0
 30
0.0
  9
$PUCSYDIR
 10
0.0
 20
1.0
 30
0.0
  9
$PUCSORTHOREF
  2

  9
$PUCSORTHOVIEW
 70
     0
  9
$PUCSORGTOP
 10
0.0
 20
0.0
 30
0.0
  9
$PUCSORGBOTTOM
 10
0.0
 20
0.0
 30
0.0
  9
$PUCSORGLEFT
 10
0.0
 20
0.0
 30
0.0
  9
$PUCSORGRIGHT
 10
0.0
 20
0.0
 30
0.0
  9
$PUCSORGFRONT
 10
0.0
 20
0.0
 30
0.0
  9
$PUCSORGBACK
 10
0.0
 20
0.0
 30
0.0
  9
$USERI1
 70
     0
  9
$USERI2
 70
     0
  9
$USERI3
 70
     0
  9
$USERI4
 70
     0
  9
$USERI5
 70
     0
  9
$USERR1
 40
0.0
  9
$USERR2
 40
0.0
  9
$USERR3
 40
0.0
  9
$USERR4
 40
0.0
  9
$USERR5
 40
0.0
  9
$WORLDVIEW
 70
     1
  9
$SHADEDGE
 70
     3
  9
$SHADEDIF
 70
    70
  9
$TILEMODE
 70
     1
  9
$MAXACTVP
 70
    64
  9
$PINSBASE
 10
0.0
 20
0.0
 30
0.0
  9
$PLIMCHECK
 70
     0
  9
$PEXTMIN
 10
1.000000000000000E+20
 20
1.000000000000000E+20
 30
1.000000000000000E+20
  9
$PEXTMAX
 10
-1.000000000000000E+20
 20
-1.000000000000000E+20
 30
-1.000000000000000E+20
  9
$PLIMMIN
 10
0.0
 20
0.0
  9
$PLIMMAX
 10
12.0
 20
9.0
  9
$UNITMODE
 70
     0
  9
$VISRETAIN
 70
     1
  9
$PLINEGEN
 70
     0
  9
$PSLTSCALE
 70
     1
  9
$TREEDEPTH
 70
  3020
  9
$CMLSTYLE
  2
Standard
  9
$CMLJUST
 70
     0
  9
$CMLSCALE
 40
1.0
  9
$PROXYGRAPHICS
 70
     1
  9
$MEASUREMENT
 70
     0
  9
$CELWEIGHT
370
    -1
  9
$ENDCAPS
280
     0
  9
$JOINSTYLE
280
     0
  9
$LWDISPLAY
290
     1
  9
$INSUNITS
 70
     1
  9
$HYPERLINKBASE
  1

  9
$STYLESHEET
  1

  9
$XEDIT
290
     1
  9
$CEPSNTYPE
380
     0
  9
$PSTYLEMODE
290
     1
  9
$FINGERPRINTGUID
  2
{6621FCCE-628E-4542-B4D7-4BE024ACC668}
  9
$VERSIONGUID
  2
{FAEB1C32-E019-11D5-929B-00C0DF256EC4}
  9
$EXTNAMES
290
     1
  9
$PSVPSCALE
 40
0.0
  9
$OLESTARTUP
290
     0
  9
$SORTENTS
280
   127
  9
$INDEXCTL
280
     0
  9
$HIDETEXT
280
     1
  9
$XCLIPFRAME
290
     0
  9
$HALOGAP
280
     0
  9
$OBSCOLOR
 70
   257
  9
$OBSLTYPE
280
     0
  9
$INTERSECTIONDISPLAY
280
     0
  9
$INTERSECTIONCOLOR
 70
   257
  9
$DIMASSOC
280
     2
  9
$PROJECTNAME
  1

  0
ENDSEC
  0
SECTION
  2
CLASSES
  0
CLASS
  1
ACDBDICTIONARYWDFLT
  2
AcDbDictionaryWithDefault
  3
ObjectDBX Classes
 90
        0
 91
        3
280
     0
281
     0
  0
CLASS
  1
VISUALSTYLE
  2
AcDbVisualStyle
  3
ObjectDBX Classes
 90
     4095
 91
        3
280
     0
281
     0
  0
CLASS
  1
IMAGEDEF
  2
AcDbRasterImageDef
  3
ISM
 90
        0
 91
        3
280
     0
281
     0
  0
CLASS
  1
RASTERVARIABLES
  2
AcDbRasterVariables
  3
ISM
 90
        0
 91
        3
280
     0
281
     0
  0
CLASS
  1
IMAGE
  2
AcDbRasterImage
  3
ISM
 90
      127
 91
        4
280
     0
281
     1
  0
CLASS
  1
IMAGEDEF_REACTOR
  2
AcDbRasterImageDefReactor
  3
ISM
 90
        1
 91
        3
280
     0
281
     0
  0
ENDSEC
  0
SECTION
  2
TABLES
  0
TABLE
  2
VPORT
  5
8
330
0
100
AcDbSymbolTable
 70
     1
  0
VPORT
  5
29
330
8
100
AcDbSymbolTableRecord
100
AcDbViewportTableRecord
  2
*Active
 70
     0
 10
0.0
 20
0.0
 11
1.0
 21
1.0
 12
0.0
 22
0.0
 13
0.0
 23
0.0
 14
0.5
 24
0.5
 15
0.5
 25
0.5
 16
0.0
 26
0.0
 36
1.0
 17
105.0008952513716
 27
-148.5000775824991
 37
0.0
 40
297.0001551649982
 41
0.7070763662937379
 42
50.0
 43
0.0
 44
0.0
 50
0.0
 51
0.0
 71
     0
 72
   100
 73
     1
 74
     3
 75
     0
 76
     0
 77
     0
 78
     0
281
     0
 65
     1
110
0.0
120
0.0
130
0.0
111
1.0
121
0.0
131
0.0
112
0.0
122
1.0
132
0.0
 79
     0
146
0.0
  0
ENDTAB
  0
TABLE
  2
LTYPE
  5
5
330
0
100
AcDbSymbolTable
 70
     3
  0
LTYPE
  5
14
330
5
100
AcDbSymbolTableRecord
100
AcDbLinetypeTableRecord
  2
ByBlock
 70
     0
  3

 72
    65
 73
     0
 40
0.0
  0
LTYPE
  5
15
330
5
100
AcDbSymbolTableRecord
100
AcDbLinetypeTableRecord
  2
ByLayer
 70
     0
  3

 72
    65
 73
     0
 40
0.0
  0
LTYPE
  5
16
330
5
100
AcDbSymbolTableRecord
100
AcDbLinetypeTableRecord
  2
Continuous
 70
     0
  3
Solid line
 72
    65
 73
     0
 40
0.0
  0
LTYPE
  5
319
330
5
100
AcDbSymbolTableRecord
100
AcDbLinetypeTableRecord
  2
AI-Linetype-1
 70
     0
  3
Adobe Illustrator Linetype No. 1
 72
    65
 73
     4
 40
9.575806333552654
 49
1.59596777833133
 74
     0
 49
-1.59596777833133
 74
     0
 49
4.787902998558663
 74
     0
 49
-1.59596777833133
 74
     0
  0
LTYPE
  5
322
330
5
100
AcDbSymbolTableRecord
100
AcDbLinetypeTableRecord
  2
AI-Linetype-2
 70
     0
  3
Adobe Illustrator Linetype No. 2
 72
    65
 73
     4
 40
9.575806333552654
 49
1.59596777833133
 74
     0
 49
-1.59596777833133
 74
     0
 49
4.787902998558663
 74
     0
 49
-1.59596777833133
 74
     0
  0
ENDTAB
  0
TABLE
  2
LAYER
  5
2
330
0
100
AcDbSymbolTable
 70
     2
  0
LAYER
  5
10
330
2
100
AcDbSymbolTableRecord
100
AcDbLayerTableRecord
  2
0
 70
     0
 62
     7
  6
Continuous
370
    -3
390
F
  0
LAYER
  5
3B
330
2
100
AcDbSymbolTableRecord
100
AcDbLayerTableRecord
  2
Layer 1
 70
     0
 62
     7
  6
Continuous
370
    -3
390
F
  0
ENDTAB
  0
TABLE
  2
STYLE
  5
3
330
0
100
AcDbSymbolTable
 70
     1
  0
STYLE
  5
11
330
3
100
AcDbSymbolTableRecord
100
AcDbTextStyleTableRecord
  2
Standard
 70
     0
 40
0.0
 41
1.0
 50
0.0
 71
     0
 42
0.2
  3
txt
  4

  0
ENDTAB
  0
TABLE
  2
VIEW
  5
6
330
0
100
AcDbSymbolTable
 70
     0
  0
ENDTAB
  0
TABLE
  2
UCS
  5
7
330
0
100
AcDbSymbolTable
 70
     0
  0
ENDTAB
  0
TABLE
  2
APPID
  5
9
330
0
100
AcDbSymbolTable
 70
     1
  0
APPID
  5
12
330
9
100
AcDbSymbolTableRecord
100
AcDbRegAppTableRecord
  2
ACAD
 70
     0
  0
ENDTAB
  0
TABLE
  2
DIMSTYLE
  5
A
330
0
100
AcDbSymbolTable
 70
     1
100
AcDbDimStyleTable
  0
DIMSTYLE
105
27
330
A
100
AcDbSymbolTableRecord
100
AcDbDimStyleTableRecord
  2
Standard
 70
     0
340
11
  0
ENDTAB
  0
TABLE
  2
BLOCK_RECORD
  5
1
330
0
100
AcDbSymbolTable
 70
     6
  0
BLOCK_RECORD
  5
1F
330
1
100
AcDbSymbolTableRecord
100
AcDbBlockTableRecord
  2
*Model_Space
340
22
  0
BLOCK_RECORD
  5
1B
330
1
100
AcDbSymbolTableRecord
100
AcDbBlockTableRecord
  2
*Paper_Space
340
1E
  0
BLOCK_RECORD
  5
23
330
1
100
AcDbSymbolTableRecord
100
AcDbBlockTableRecord
  2
*Paper_Space0
340
26
  0
BLOCK_RECORD
  5
3C
330
1
100
AcDbSymbolTableRecord
100
AcDbBlockTableRecord
  2
block 2
340
0
102
{BLKREFS
331
3D
102
}
  0
BLOCK_RECORD
  5
A7
330
1
100
AcDbSymbolTableRecord
100
AcDbBlockTableRecord
  2
block 3
340
0
102
{BLKREFS
331
A8
102
}
  0
BLOCK_RECORD
  5
AD
330
1
100
AcDbSymbolTableRecord
100
AcDbBlockTableRecord
  2
block 4
340
0
102
{BLKREFS
331
AE
102
}
  0
BLOCK_RECORD
  5
B1
330
1
100
AcDbSymbolTableRecord
100
AcDbBlockTableRecord
  2
block 5
340
0
102
{BLKREFS
331
B2
102
}
  0
BLOCK_RECORD
  5
B5
330
1
100
AcDbSymbolTableRecord
100
AcDbBlockTableRecord
  2
block 6
340
0
102
{BLKREFS
331
B6
102
}
  0
ENDTAB
  0
ENDSEC
  0
SECTION
  2
BLOCKS
  0
BLOCK
  5
20
330
1F
100
AcDbEntity
  8
0
100
AcDbBlockBegin
  2
*Model_Space
 70
     0
 71
     0
 10
0.0
 20
0.0
 30
0.0
  3
*Model_Space
  1

  0
ENDBLK
  5
21
330
1F
100
AcDbEntity
  8
0
100
AcDbBlockEnd
  0
BLOCK
  5
1C
330
1B
100
AcDbEntity
 67
     1
  8
0
100
AcDbBlockBegin
  2
*Paper_Space
 70
     0
 71
     0
 10
0.0
 20
0.0
 30
0.0
  3
*Paper_Space
  1

  0
ENDBLK
  5
1D
330
1B
100
AcDbEntity
 67
     1
  8
0
100
AcDbBlockEnd
  0
BLOCK
  5
24
330
23
100
AcDbEntity
  8
0
100
AcDbBlockBegin
  2
*Paper_Space0
 70
     0
 71
     0
 10
0.0
 20
0.0
 30
0.0
  3
*Paper_Space0
  1

  0
ENDBLK
  5
25
330
23
100
AcDbEntity
  8
0
100
AcDbBlockEnd
  0
BLOCK
  5
3E
330
3C
100
AcDbEntity
  8
0
100
AcDbBlockBegin
  2
block 2
 70
     0
 71
     0
 10
0.0
 20
0.0
 30
0.0
  3
block 2
  1

  0
IMAGE
  5
43
330
3C
100
AcDbEntity
  8
Layer 1
 92
        8
310
0800000000000000
100
AcDbRasterImage
 90
        0
 10
11.56967163085938
 20
-269.1219177246094
 30
0.0
 11
0.2650368375132283
 21
0.0
 31
0.0
 12
0.0
 22
0.2706950187683105
 32
0.0
 13
251.0
 23
40.0
340
41
 70
     3
280
     0
281
    50
282
    50
283
     0
360
44
 71
     1
 91
        2
 14
-0.5
 24
-0.5
 14
250.5
 24
39.5
  0
POLYLINE
  5
45
330
3C
100
AcDbEntity
  8
Layer 1
370
     0
100
AcDb2dPolyline
 66
     1
 10
0.0
 20
0.0
 30
0.0
  0
VERTEX
  5
46
330
45
100
AcDbEntity
  8
Layer 1
370
     0
100
AcDbVertex
100
AcDb2dVertex
 10
11.56967180056274
 20
-269.1220795977964
 30
0.0
  0
VERTEX
  5
47
330
45
100
AcDbEntity
  8
Layer 1
370
     0
100
AcDbVertex
100
AcDb2dVertex
 10
78.09382048725135
 20
-269.1220795977964
 30
0.0
  0
VERTEX
  5
48
330
45
100
AcDbEntity
  8
Layer 1
370
     0
100
AcDbVertex
100
AcDb2dVertex
 10
78.09382048725135
 20
-258.2941373445228
 30
0.0
  0
VERTEX
  5
49
330
45
100
AcDbEntity
  8
Layer 1
370
     0
100
AcDbVertex
100
AcDb2dVertex
 10
11.56967180056274
 20
-258.2941373445228
 30
0.0
  0
VERTEX
  5
4A
330
45
100
AcDbEntity
  8
Layer 1
370
     0
100
AcDbVertex
100
AcDb2dVertex
 10
11.56967180056274
 20
-269.1220795977964
 30
0.0
  0
SEQEND
  5
4B
330
45
100
AcDbEntity
  8
Layer 1
370
     0
  0
ENDBLK
  5
3F
330
3C
100
AcDbEntity
  8
0
100
AcDbBlockEnd
  0
BLOCK
  5
A9
330
A7
100
AcDbEntity
  8
0
100
AcDbBlockBegin
  2
block 3
 70
     0
 71
     0
 10
0.0
 20
0.0
 30
0.0
  3
block 3
  1

  0
MTEXT
  5
AB
330
A7
100
AcDbEntity
  8
Layer 1
 62
    18
420
    65793
100
AcDbMText
 10
118.2378221118999
 20
-271.4261609783212
 30
0.0
 40
4.653106244767444
 41
0.0
 71
     7
 72
     1
  1
\fArial,Bold|b0|i0|c0|p34;\W0.979537;80mm  45   Junction
 73
     1
 44
1.0
  0
ENDBLK
  5
AA
330
A7
100
AcDbEntity
  8
0
100
AcDbBlockEnd
  0
BLOCK
  5
AF
330
AD
100
AcDbEntity
  8
0
100
AcDbBlockBegin
  2
block 4
 70
     0
 71
     0
 10
0.0
 20
0.0
 30
0.0
  3
block 4
  1

  0
INSERT
  5
B2
330
AD
100
AcDbEntity
  8
Layer 1
100
AcDbBlockReference
  2
block 5
 10
0.0
 20
0.0
 30
0.0
  0
POLYLINE
  5
34A
330
AD
100
AcDbEntity
  8
Layer 1
370
     0
100
AcDb2dPolyline
 66
     1
 10
0.0
 20
0.0
 30
0.0
  0
VERTEX
  5
34B
330
34A
100
AcDbEntity
  8
Layer 1
370
     0
100
AcDbVertex
100
AcDb2dVertex
 10
12.30502791699966
 20
-14.81667643744163
 30
0.0
  0
VERTEX
  5
34C
330
34A
100
AcDbEntity
  8
Layer 1
370
     0
100
AcDbVertex
100
AcDb2dVertex
 10
201.0834659367078
 20
-14.81667643744163
 30
0.0
  0
VERTEX
  5
34D
330
34A
100
AcDbEntity
  8
Layer 1
370
     0
100
AcDbVertex
100
AcDb2dVertex
 10
201.0834659367078
 20
-216.9584764053953
 30
0.0
  0
VERTEX
  5
34E
330
34A
100
AcDbEntity
  8
Layer 1
370
     0
100
AcDbVertex
100
AcDb2dVertex
 10
12.30502791699966
 20
-216.9584764053953
 30
0.0
  0
VERTEX
  5
34F
330
34A
100
AcDbEntity
  8
Layer 1
370
     0
100
AcDbVertex
100
AcDb2dVertex
 10
12.30502791699966
 20
-14.81667643744163
 30
0.0
  0
SEQEND
  5
350
330
34A
100
AcDbEntity
  8
Layer 1
370
     0
  0
ENDBLK
  5
B0
330
AD
100
AcDbEntity
  8
0
100
AcDbBlockEnd
  0
BLOCK
  5
B3
330
B1
100
AcDbEntity
  8
0
100
AcDbBlockBegin
  2
block 5
 70
     0
 71
     0
 10
0.0
 20
0.0
 30
0.0
  3
block 5
  1

  0
INSERT
  5
B6
330
B1
100
AcDbEntity
  8
Layer 1
100
AcDbBlockReference
  2
block 6
 10
0.0
 20
0.0
 30
0.0
  0
ENDBLK
  5
B4
330
B1
100
AcDbEntity
  8
0
100
AcDbBlockEnd
  0
BLOCK
  5
B7
330
B5
100
AcDbEntity
  8
0
100
AcDbBlockBegin
  2
block 6
 70
     0
 71
     0
 10
0.0
 20
0.0
 30
0.0
  3
block 6
  1

  0
MTEXT
  5
B9
330
B5
100
AcDbEntity
  8
Layer 1
 62
     7
420
 16777215
100
AcDbMText
 10
101.6629400336825
 20
-211.4208262692477
 30
0.0
 40
1.970669798752098
 41
0.0
 71
     7
 72
     1
  1
\fHelvetica|b0|i0|c0|p34;\W1;183
 73
     1
 44
1.0
  0
POLYLINE
  5
BA
330
B5
100
AcDbEntity
  8
Layer 1
370
     0
100
AcDb2dPolyline
 66
     1
 10
0.0
 20
0.0
 30
0.0
  0
VERTEX
  5
BB
330
BA
100
AcDbEntity
  8
Layer 1
370
     0
100
AcDbVertex
100
AcDb2dVertex
 10
171.6196118715163
 20
-210.3063371445471
 30
0.0
  0
VERTEX
  5
BC
330
BA
100
AcDbEntity
  8
Layer 1
370
     0
100
AcDbVertex
100
AcDb2dVertex
 10
169.3902891123393
 20
-210.8637539617853
 30
0.0
  0
VERTEX
  5
BD
330
BA
100
AcDbEntity
  8
Layer 1
370
     0
100
AcDbVertex
100
AcDb2dVertex
 10
169.3902891123393
 20
-209.7489203273089
 30
0.0
  0
VERTEX
  5
BE
330
BA
100
AcDbEntity
  8
Layer 1
370
     0
100
AcDbVertex
100
AcDb2dVertex
 10
171.6196118715163
 20
-210.3063371445471
 30
0.0
  0
SEQEND
  5
BF
330
BA
100
AcDbEntity
  8
Layer 1
370
     0
  0
HATCH
  5
C0
330
B5
100
AcDbEntity
  8
Layer 1
 62
     7
420
 16777215
100
AcDbHatch
 10
0.0
 20
0.0
 30
0.0
210
0.0
220
0.0
230
1.0
  2
SOLID
 70
     1
 71
     0
 91
        1
 92
        1
 93
        3
 72
     1
 10
171.6196118715163
 20
-210.3063371445471
 11
169.3902891123393
 21
-210.8637539617853
 72
     1
 10
169.3902891123393
 20
-210.8637539617853
 11
169.3902891123393
 21
-209.7489203273089
 72
     1
 10
169.3902891123393
 20
-209.7489203273089
 11
171.6196118715163
 21
-210.3063371445471
 97
        0
 75
     2
 76
     1
 98
        0
  0
POLYLINE
  5
C1
330
B5
100
AcDbEntity
  8
Layer 1
370
     0
100
AcDb2dPolyline
 66
     1
 10
0.0
 20
0.0
 30
0.0
  0
VERTEX
  5
C2
330
C1
100
AcDbEntity
  8
Layer 1
370
     0
100
AcDbVertex
100
AcDb2dVertex
 10
35.71894580943469
 20
-210.3063371445471
 30
0.0
  0
VERTEX
  5
C3
330
C1
100
AcDbEntity
  8
Layer 1
370
     0
100
AcDbVertex
100
AcDb2dVertex
 10
37.9482685686117
 20
-209.7489203273089
 30
0.0
  0
VERTEX
  5
C4
330
C1
100
AcDbEntity
  8
Layer 1
370
     0
100
AcDbVertex
100
AcDb2dVertex
 10
37.9482685686117
 20
-210.8637539617853
 30
0.0
  0
VERTEX
  5
C5
330
C1
100
AcDbEntity
  8
Layer 1
370
     0
100
AcDbVertex
100
AcDb2dVertex
 10
35.71894580943469
 20
-210.3063371445471
 30
0.0
  0
SEQEND
  5
C6
330
C1
100
AcDbEntity
  8
Layer 1
370
     0
  0
HATCH
  5
C7
330
B5
100
AcDbEntity
  8
Layer 1
 62
     7
420
 16777215
100
AcDbHatch
 10
0.0
 20
0.0
 30
0.0
210
0.0
220
0.0
230
1.0
  2
SOLID
 70
     1
 71
     0
 91
        1
 92
        1
 93
        3
 72
     1
 10
35.71894580943469
 20
-210.3063371445471
 11
37.9482685686117
 21
-209.7489203273089
 72
     1
 10
37.9482685686117
 20
-209.7489203273089
 11
37.9482685686117
 21
-210.8637539617853
 72
     1
 10
37.9482685686117
 20
-210.8637539617853
 11
35.71894580943469
 21
-210.3063371445471
 97
        0
 75
     2
 76
     1
 98
        0
  0
MTEXT
  5
C8
330
B5
100
AcDbEntity
  8
Layer 1
 62
     7
420
 16777215
100
AcDbMText
 10
188.8647377185451
 20
-117.3000665021828
 30
0.0
 40
1.970669798752098
 41
0.0
 71
     7
 72
     1
  1
\fHelvetica|b0|i0|c0|p34;\W1;215
 73
     1
 44
1.0
  0
POLYLINE
  5
C9
330
B5
100
AcDbEntity
  8
Layer 1
370
     0
100
AcDb2dPolyline
 66
     1
 10
0.0
 20
0.0
 30
0.0
  0
VERTEX
  5
CA
330
C9
100
AcDbEntity
  8
Layer 1
370
     0
100
AcDbVertex
100
AcDb2dVertex
 10
190.871162652782
 20
-36.30340664407289
 30
0.0
  0
VERTEX
  5
CB
330
C9
100
AcDbEntity
  8
Layer 1
370
     0
100
AcDbVertex
100
AcDb2dVertex
 10
191.4282349602444
 20
-38.5327294032499
 30
0.0
  0
VERTEX
  5
CC
330
C9
100
AcDbEntity
  8
Layer 1
370
     0
100
AcDbVertex
100
AcDb2dVertex
 10
190.3137458355438
 20
-38.5327294032499
 30
0.0
  0
VERTEX
  5
CD
330
C9
100
AcDbEntity
  8
Layer 1
370
     0
100
AcDbVertex
100
AcDb2dVertex
 10
190.871162652782
 20
-36.30340664407289
 30
0.0
  0
SEQEND
  5
CE
330
C9
100
AcDbEntity
  8
Layer 1
370
     0
  0
HATCH
  5
CF
330
B5
100
AcDbEntity
  8
Layer 1
 62
     7
420
 16777215
100
AcDbHatch
 10
0.0
 20
0.0
 30
0.0
210
0.0
220
0.0
230
1.0
  2
SOLID
 70
     1
 71
     0
 91
        1
 92
        1
 93
        3
 72
     1
 10
190.871162652782
 20
-36.30340664407289
 11
191.4282349602444
 21
-38.5327294032499
 72
     1
 10
191.4282349602444
 20
-38.5327294032499
 11
190.3137458355438
 21
-38.5327294032499
 72
     1
 10
190.3137458355438
 20
-38.5327294032499
 11
190.871162652782
 21
-36.30340664407289
 97
        0
 75
     2
 76
     1
 98
        0
  0
POLYLINE
  5
D0
330
B5
100
AcDbEntity
  8
Layer 1
370
     0
100
AcDb2dPolyline
 66
     1
 10
0.0
 20
0.0
 30
0.0
  0
VERTEX
  5
D1
330
D0
100
AcDbEntity
  8
Layer 1
370
     0
100
AcDbVertex
100
AcDb2dVertex
 10
190.871162652782
 20
-196.0677481108914
 30
0.0
  0
VERTEX
  5
D2
330
D0
100
AcDbEntity
  8
Layer 1
370
     0
100
AcDbVertex
100
AcDb2dVertex
 10
190.3137458355438
 20
-193.8384253517144
 30
0.0
  0
VERTEX
  5
D3
330
D0
100
AcDbEntity
  8
Layer 1
370
     0
100
AcDbVertex
100
AcDb2dVertex
 10
191.4282349602444
 20
-193.8384253517144
 30
0.0
  0
VERTEX
  5
D4
330
D0
100
AcDbEntity
  8
Layer 1
370
     0
100
AcDbVertex
100
AcDb2dVertex
 10
190.871162652782
 20
-196.0677481108914
 30
0.0
  0
SEQEND
  5
D5
330
D0
100
AcDbEntity
  8
Layer 1
370
     0
  0
HATCH
  5
D6
330
B5
100
AcDbEntity
  8
Layer 1
 62
     7
420
 16777215
100
AcDbHatch
 10
0.0
 20
0.0
 30
0.0
210
0.0
220
0.0
230
1.0
  2
SOLID
 70
     1
 71
     0
 91
        1
 92
        1
 93
        3
 72
     1
 10
190.871162652782
 20
-196.0677481108914
 11
190.3137458355438
 21
-193.8384253517144
 72
     1
 10
190.3137458355438
 20
-193.8384253517144
 11
191.4282349602444
 21
-193.8384253517144
 72
     1
 10
191.4282349602444
 20
-193.8384253517144
 11
190.871162652782
 21
-196.0677481108914
 97
        0
 75
     2
 76
     1
 98
        0
  0
MTEXT
  5
D7
330
B5
100
AcDbEntity
  8
Layer 1
 62
     7
420
 16777215
100
AcDbMText
 10
17.27888780505685
 20
-132.8727696426091
 30
0.0
 40
1.970669798752098
 41
0.0
 71
     7
 72
     1
  1
\fHelvetica|b0|i0|c0|p34;\W1;173
 73
     1
 44
1.0
  0
POLYLINE
  5
D8
330
B5
100
AcDbEntity
  8
Layer 1
370
     0
100
AcDb2dPolyline
 66
     1
 10
0.0
 20
0.0
 30
0.0
  0
VERTEX
  5
D9
330
D8
100
AcDbEntity
  8
Layer 1
370
     0
100
AcDbVertex
100
AcDb2dVertex
 10
19.28531273929374
 20
-196.0677481108914
 30
0.0
  0
VERTEX
  5
DA
330
D8
100
AcDbEntity
  8
Layer 1
370
     0
100
AcDbVertex
100
AcDb2dVertex
 10
18.72806817694343
 20
-193.8384253517144
 30
0.0
  0
VERTEX
  5
DB
330
D8
100
AcDbEntity
  8
Layer 1
370
     0
100
AcDbVertex
100
AcDb2dVertex
 10
19.84255730164404
 20
-193.8384253517144
 30
0.0
  0
VERTEX
  5
DC
330
D8
100
AcDbEntity
  8
Layer 1
370
     0
100
AcDbVertex
100
AcDb2dVertex
 10
19.28531273929374
 20
-196.0677481108914
 30
0.0
  0
SEQEND
  5
DD
330
D8
100
AcDbEntity
  8
Layer 1
370
     0
  0
HATCH
  5
DE
330
B5
100
AcDbEntity
  8
Layer 1
 62
     7
420
 16777215
100
AcDbHatch
 10
0.0
 20
0.0
 30
0.0
210
0.0
220
0.0
230
1.0
  2
SOLID
 70
     1
 71
     0
 91
        1
 92
        1
 93
        3
 72
     1
 10
19.28531273929374
 20
-196.0677481108914
 11
18.72806817694343
 21
-193.8384253517144
 72
     1
 10
18.72806817694343
 20
-193.8384253517144
 11
19.84255730164404
 21
-193.8384253517144
 72
     1
 10
19.84255730164404
 20
-193.8384253517144
 11
19.28531273929374
 21
-196.0677481108914
 97
        0
 75
     2
 76
     1
 98
        0
  0
POLYLINE
  5
DF
330
B5
100
AcDbEntity
  8
Layer 1
370
     0
100
AcDb2dPolyline
 66
     1
 10
0.0
 20
0.0
 30
0.0
  0
VERTEX
  5
E0
330
DF
100
AcDbEntity
  8
Layer 1
370
     0
100
AcDbVertex
100
AcDb2dVertex
 10
19.28531273929374
 20
-67.44864067003763
 30
0.0
  0
VERTEX
  5
E1
330
DF
100
AcDbEntity
  8
Layer 1
370
     0
100
AcDbVertex
100
AcDb2dVertex
 10
19.84255730164404
 20
-69.67779117432674
 30
0.0
  0
VERTEX
  5
E2
330
DF
100
AcDbEntity
  8
Layer 1
370
     0
100
AcDbVertex
100
AcDb2dVertex
 10
18.72806817694343
 20
-69.67779117432674
 30
0.0
  0
VERTEX
  5
E3
330
DF
100
AcDbEntity
  8
Layer 1
370
     0
100
AcDbVertex
100
AcDb2dVertex
 10
19.28531273929374
 20
-67.44864067003763
 30
0.0
  0
SEQEND
  5
E4
330
DF
100
AcDbEntity
  8
Layer 1
370
     0
  0
HATCH
  5
E5
330
B5
100
AcDbEntity
  8
Layer 1
 62
     7
420
 16777215
100
AcDbHatch
 10
0.0
 20
0.0
 30
0.0
210
0.0
220
0.0
230
1.0
  2
SOLID
 70
     1
 71
     0
 91
        1
 92
        1
 93
        3
 72
     1
 10
19.28531273929374
 20
-67.44864067003763
 11
19.84255730164404
 21
-69.67779117432674
 72
     1
 10
19.84255730164404
 20
-69.67779117432674
 11
18.72806817694343
 21
-69.67779117432674
 72
     1
 10
18.72806817694343
 20
-69.67779117432674
 11
19.28531273929374
 21
-67.44864067003763
 97
        0
 75
     2
 76
     1
 98
        0
  0
MTEXT
  5
E6
330
B5
100
AcDbEntity
  8
Layer 1
 62
     7
420
 16777215
100
AcDbMText
 10
136.843072553772
 20
-203.856769631867
 30
0.0
 40
1.970669798752098
 41
0.0
 71
     7
 72
     1
  1
\fHelvetica|b0|i0|c0|p34;\W1;90
 73
     1
 44
1.0
  0
POLYLINE
  5
E7
330
B5
100
AcDbEntity
  8
Layer 1
370
     0
100
AcDb2dPolyline
 66
     1
 10
0.0
 20
0.0
 30
0.0
  0
VERTEX
  5
E8
330
E7
100
AcDbEntity
  8
Layer 1
370
     0
100
AcDbVertex
100
AcDb2dVertex
 10
104.741651645085
 20
-202.7419359973906
 30
0.0
  0
VERTEX
  5
E9
330
E7
100
AcDbEntity
  8
Layer 1
370
     0
100
AcDbVertex
100
AcDb2dVertex
 10
106.970974404262
 20
-202.1848636899282
 30
0.0
  0
VERTEX
  5
EA
330
E7
100
AcDbEntity
  8
Layer 1
370
     0
100
AcDbVertex
100
AcDb2dVertex
 10
106.970974404262
 20
-203.2993528146288
 30
0.0
  0
VERTEX
  5
EB
330
E7
100
AcDbEntity
  8
Layer 1
370
     0
100
AcDbVertex
100
AcDb2dVertex
 10
104.741651645085
 20
-202.7419359973906
 30
0.0
  0
SEQEND
  5
EC
330
E7
100
AcDbEntity
  8
Layer 1
370
     0
  0
HATCH
  5
ED
330
B5
100
AcDbEntity
  8
Layer 1
 62
     7
420
 16777215
100
AcDbHatch
 10
0.0
 20
0.0
 30
0.0
210
0.0
220
0.0
230
1.0
  2
SOLID
 70
     1
 71
     0
 91
        1
 92
        1
 93
        3
 72
     1
 10
104.741651645085
 20
-202.7419359973906
 11
106.970974404262
 21
-202.1848636899282
 72
     1
 10
106.970974404262
 20
-202.1848636899282
 11
106.970974404262
 21
-203.2993528146288
 72
     1
 10
106.970974404262
 20
-203.2993528146288
 11
104.741651645085
 21
-202.7419359973906
 97
        0
 75
     2
 76
     1
 98
        0
  0
POLYLINE
  5
EE
330
B5
100
AcDbEntity
  8
Layer 1
370
     0
100
AcDb2dPolyline
 66
     1
 10
0.0
 20
0.0
 30
0.0
  0
VERTEX
  5
EF
330
EE
100
AcDbEntity
  8
Layer 1
370
     0
100
AcDbVertex
100
AcDb2dVertex
 10
171.6196118715163
 20
-202.7419359973906
 30
0.0
  0
VERTEX
  5
F0
330
EE
100
AcDbEntity
  8
Layer 1
370
     0
100
AcDbVertex
100
AcDb2dVertex
 10
169.3902891123393
 20
-203.2993528146288
 30
0.0
  0
VERTEX
  5
F1
330
EE
100
AcDbEntity
  8
Layer 1
370
     0
100
AcDbVertex
100
AcDb2dVertex
 10
169.3902891123393
 20
-202.1848636899282
 30
0.0
  0
VERTEX
  5
F2
330
EE
100
AcDbEntity
  8
Layer 1
370
     0
100
AcDbVertex
100
AcDb2dVertex
 10
171.6196118715163
 20
-202.7419359973906
 30
0.0
  0
SEQEND
  5
F3
330
EE
100
AcDbEntity
  8
Layer 1
370
     0
  0
HATCH
  5
F4
330
B5
100
AcDbEntity
  8
Layer 1
 62
     7
420
 16777215
100
AcDbHatch
 10
0.0
 20
0.0
 30
0.0
210
0.0
220
0.0
230
1.0
  2
SOLID
 70
     1
 71
     0
 91
        1
 92
        1
 93
        3
 72
     1
 10
171.6196118715163
 20
-202.7419359973906
 11
169.3902891123393
 21
-203.2993528146288
 72
     1
 10
169.3902891123393
 20
-203.2993528146288
 11
169.3902891123393
 21
-202.1848636899282
 72
     1
 10
169.3902891123393
 20
-202.1848636899282
 11
171.6196118715163
 21
-202.7419359973906
 97
        0
 75
     2
 76
     1
 98
        0
  0
POLYLINE
  5
F5
330
B5
100
AcDbEntity
  8
Layer 1
 62
     7
420
 16777215
370
     9
100
AcDb2dPolyline
 66
     1
 10
0.0
 20
0.0
 30
0.0
  0
VERTEX
  5
F6
330
F5
100
AcDbEntity
  8
Layer 1
 62
     7
420
 16777215
370
     9
100
AcDbVertex
100
AcDb2dVertex
 10
91.74088623586499
 20
-31.22843313681952
 30
0.0
  0
VERTEX
  5
F7
330
F5
100
AcDbEntity
  8
Layer 1
 62
     7
420
 16777215
370
     9
100
AcDbVertex
100
AcDb2dVertex
 10
91.74088623586499
 20
-31.59998693001569
 30
0.0
  0
VERTEX
  5
F8
330
F5
100
AcDbEntity
  8
Layer 1
 62
     7
420
 16777215
370
     9
100
AcDbVertex
100
AcDb2dVertex
 10
91.92674925990703
 20
-31.78584995405772
 30
0.0
  0
VERTEX
  5
F9
330
F5
100
AcDbEntity
  8
Layer 1
 62
     7
420
 16777215
370
     9
100
AcDbVertex
100
AcDb2dVertex
 10
92.2981307982153
 20
-31.78584995405772
 30
0.0
  0
VERTEX
  5
FA
330
F5
100
AcDbEntity
  8
Layer 1
 62
     7
420
 16777215
370
     9
100
AcDbVertex
100
AcDb2dVertex
 10
92.48399382225732
 20
-31.59998693001569
 30
0.0
  0
VERTEX
  5
FB
330
F5
100
AcDbEntity
  8
Layer 1
 62
     7
420
 16777215
370
     9
100
AcDbVertex
100
AcDb2dVertex
 10
92.48399382225732
 20
-31.22843313681952
 30
0.0
  0
VERTEX
  5
FC
330
F5
100
AcDbEntity
  8
Layer 1
 62
     7
420
 16777215
370
     9
100
AcDbVertex
100
AcDb2dVertex
 10
92.2981307982153
 20
-31.04257011277749
 30
0.0
  0
VERTEX
  5
FD
330
F5
100
AcDbEntity
  8
Layer 1
 62
     7
420
 16777215
370
     9
100
AcDbVertex
100
AcDb2dVertex
 10
91.92674925990703
 20
-31.04257011277749
 30
0.0
  0
VERTEX
  5
FE
330
F5
100
AcDbEntity
  8
Layer 1
 62
     7
420
 16777215
370
     9
100
AcDbVertex
100
AcDb2dVertex
 10
91.74088623586499
 20
-31.22843313681952
 30
0.0
  0
SEQEND
  5
FF
330
F5
100
AcDbEntity
  8
Layer 1
370
     9
  0
MTEXT
  5
100
330
B5
100
AcDbEntity
  8
Layer 1
 62
     7
420
 16777215
100
AcDbMText
 10
89.06576782680773
 20
-33.8293096891927
 30
0.0
 40
1.970669798752098
 41
0.0
 71
     7
 72
     1
  1
\fHelvetica|b0|i0|c0|p34;\W1;45
 73
     1
 44
1.0
  0
POLYLINE
  5
101
330
B5
100
AcDbEntity
  8
Layer 1
370
     0
100
AcDb2dPolyline
 66
     1
 10
0.0
 20
0.0
 30
0.0
  0
VERTEX
  5
102
330
101
100
AcDbEntity
  8
Layer 1
370
     0
100
AcDbVertex
100
AcDb2dVertex
 10
138.1804595034127
 20
-23.35879632830764
 30
0.0
  0
VERTEX
  5
103
330
101
100
AcDbEntity
  8
Layer 1
370
     0
100
AcDbVertex
100
AcDb2dVertex
 10
135.9563043908727
 20
-23.93636696742991
 30
0.0
  0
VERTEX
  5
104
330
101
100
AcDbEntity
  8
Layer 1
370
     0
100
AcDbVertex
100
AcDb2dVertex
 10
135.9463136073746
 20
-22.82170558784141
 30
0.0
  0
VERTEX
  5
105
330
101
100
AcDbEntity
  8
Layer 1
370
     0
100
AcDbVertex
100
AcDb2dVertex
 10
138.1804595034127
 20
-23.35879632830764
 30
0.0
  0
SEQEND
  5
106
330
101
100
AcDbEntity
  8
Layer 1
370
     0
  0
HATCH
  5
107
330
B5
100
AcDbEntity
  8
Layer 1
 62
     7
420
 16777215
100
AcDbHatch
 10
0.0
 20
0.0
 30
0.0
210
0.0
220
0.0
230
1.0
  2
SOLID
 70
     1
 71
     0
 91
        1
 92
        1
 93
        3
 72
     1
 10
138.1804595034127
 20
-23.35879632830764
 11
135.9563043908727
 21
-23.93636696742991
 72
     1
 10
135.9563043908727
 20
-23.93636696742991
 11
135.9463136073746
 21
-22.82170558784141
 72
     1
 10
135.9463136073746
 20
-22.82170558784141
 11
138.1804595034127
 21
-23.35879632830764
 97
        0
 75
     2
 76
     1
 98
        0
  0
POLYLINE
  5
108
330
B5
100
AcDbEntity
  8
Layer 1
370
     0
100
AcDb2dPolyline
 66
     1
 10
0.0
 20
0.0
 30
0.0
  0
VERTEX
  5
109
330
108
100
AcDbEntity
  8
Layer 1
370
     0
100
AcDbVertex
100
AcDb2dVertex
 10
51.27270091219221
 20
-59.35748407568881
 30
0.0
  0
VERTEX
  5
10A
330
108
100
AcDbEntity
  8
Layer 1
370
     0
100
AcDbVertex
100
AcDb2dVertex
 10
52.47262846129027
 20
-57.3977402160723
 30
0.0
  0
VERTEX
  5
10B
330
108
100
AcDbEntity
  8
Layer 1
370
     0
100
AcDbVertex
100
AcDb2dVertex
 10
53.25380437790809
 20
-58.19304103349776
 30
0.0
  0
VERTEX
  5
10C
330
108
100
AcDbEntity
  8
Layer 1
370
     0
100
AcDbVertex
100
AcDb2dVertex
 10
51.27270091219221
 20
-59.35748407568881
 30
0.0
  0
SEQEND
  5
10D
330
108
100
AcDbEntity
  8
Layer 1
370
     0
  0
HATCH
  5
10E
330
B5
100
AcDbEntity
  8
Layer 1
 62
     7
420
 16777215
100
AcDbHatch
 10
0.0
 20
0.0
 30
0.0
210
0.0
220
0.0
230
1.0
  2
SOLID
 70
     1
 71
     0
 91
        1
 92
        1
 93
        3
 72
     1
 10
51.27270091219221
 20
-59.35748407568881
 11
52.47262846129027
 21
-57.3977402160723
 72
     1
 10
52.47262846129027
 20
-57.3977402160723
 11
53.25380437790809
 21
-58.19304103349776
 72
     1
 10
53.25380437790809
 20
-58.19304103349776
 11
51.27270091219221
 21
-59.35748407568881
 97
        0
 75
     2
 76
     1
 98
        0
  0
POLYLINE
  5
10F
330
B5
100
AcDbEntity
  8
Layer 1
 62
     7
420
 16777215
370
    25
100
AcDb2dPolyline
 66
     1
 10
0.0
 20
0.0
 30
0.0
  0
VERTEX
  5
110
330
10F
100
AcDbEntity
  8
Layer 1
 62
     7
420
 16777215
370
    25
100
AcDbVertex
100
AcDb2dVertex
 10
-35.3399850560589
 20
-225.3238627812779
 30
0.0
  0
VERTEX
  5
111
330
10F
100
AcDbEntity
  8
Layer 1
 62
     7
420
 16777215
370
    25
100
AcDbVertex
100
AcDb2dVertex
 10
-35.3399850560589
 20
-4.626249524278854
 30
0.0
  0
SEQEND
  5
112
330
10F
100
AcDbEntity
  8
Layer 1
370
    25
  0
POLYLINE
  5
113
330
B5
100
AcDbEntity
  8
Layer 1
 62
     7
420
 16777215
370
    25
100
AcDb2dPolyline
 66
     1
 10
0.0
 20
0.0
 30
0.0
  0
VERTEX
  5
114
330
113
100
AcDbEntity
  8
Layer 1
 62
     7
420
 16777215
370
    25
100
AcDbVertex
100
AcDb2dVertex
 10
-35.3399850560589
 20
-225.3238627812779
 30
0.0
  0
VERTEX
  5
115
330
113
100
AcDbEntity
  8
Layer 1
 62
     7
420
 16777215
370
    25
100
AcDbVertex
100
AcDb2dVertex
 10
276.7574497587669
 20
-225.3238627812779
 30
0.0
  0
SEQEND
  5
116
330
113
100
AcDbEntity
  8
Layer 1
370
    25
  0
POLYLINE
  5
117
330
B5
100
AcDbEntity
  8
Layer 1
 62
     7
420
 16777215
370
    25
100
AcDb2dPolyline
 66
     1
 10
0.0
 20
0.0
 30
0.0
  0
VERTEX
  5
118
330
117
100
AcDbEntity
  8
Layer 1
 62
     7
420
 16777215
370
    25
100
AcDbVertex
100
AcDb2dVertex
 10
-35.3399850560589
 20
-4.626249524278854
 30
0.0
  0
VERTEX
  5
119
330
117
100
AcDbEntity
  8
Layer 1
 62
     7
420
 16777215
370
    25
100
AcDbVertex
100
AcDb2dVertex
 10
276.7574497587669
 20
-4.626249524278854
 30
0.0
  0
SEQEND
  5
11A
330
117
100
AcDbEntity
  8
Layer 1
370
    25
  0
POLYLINE
  5
11B
330
B5
100
AcDbEntity
  8
Layer 1
 62
     7
420
 16777215
370
    25
100
AcDb2dPolyline
 66
     1
 10
0.0
 20
0.0
 30
0.0
  0
VERTEX
  5
11C
330
11B
100
AcDbEntity
  8
Layer 1
 62
     7
420
 16777215
370
    25
100
AcDbVertex
100
AcDb2dVertex
 10
276.7574497587669
 20
-225.3238627812779
 30
0.0
  0
VERTEX
  5
11D
330
11B
100
AcDbEntity
  8
Layer 1
 62
     7
420
 16777215
370
    25
100
AcDbVertex
100
AcDb2dVertex
 10
276.7574497587669
 20
-4.626249524278854
 30
0.0
  0
SEQEND
  5
11E
330
11B
100
AcDbEntity
  8
Layer 1
370
    25
  0
POLYLINE
  5
11F
330
B5
100
AcDbEntity
  8
Layer 1
 62
     7
420
 16777215
370
    25
100
AcDb2dPolyline
 66
     1
 10
0.0
 20
0.0
 30
0.0
  0
VERTEX
  5
120
330
11F
100
AcDbEntity
  8
Layer 1
 62
     7
420
 16777215
370
    25
100
AcDbVertex
100
AcDb2dVertex
 10
171.6196118715163
 20
-210.3063371445471
 30
0.0
  0
VERTEX
  5
121
330
11F
100
AcDbEntity
  8
Layer 1
 62
     7
420
 16777215
370
    25
100
AcDbVertex
100
AcDb2dVertex
 10
106.790106771969
 20
-210.3063371445471
 30
0.0
  0
SEQEND
  5
122
330
11F
100
AcDbEntity
  8
Layer 1
370
    25
  0
POLYLINE
  5
123
330
B5
100
AcDbEntity
  8
Layer 1
 62
     7
420
 16777215
370
    25
100
AcDb2dPolyline
 66
     1
 10
0.0
 20
0.0
 30
0.0
  0
VERTEX
  5
124
330
123
100
AcDbEntity
  8
Layer 1
 62
     7
420
 16777215
370
    25
100
AcDbVertex
100
AcDb2dVertex
 10
35.71894580943469
 20
-210.3063371445471
 30
0.0
  0
VERTEX
  5
125
330
123
100
AcDbEntity
  8
Layer 1
 62
     7
420
 16777215
370
    25
100
AcDbVertex
100
AcDb2dVertex
 10
100.548278654094
 20
-210.3063371445471
 30
0.0
  0
SEQEND
  5
126
330
123
100
AcDbEntity
  8
Layer 1
370
    25
  0
POLYLINE
  5
127
330
B5
100
AcDbEntity
  8
Layer 1
 62
     7
420
 16777215
370
    25
100
AcDb2dPolyline
 66
     1
 10
0.0
 20
0.0
 30
0.0
  0
VERTEX
  5
128
330
127
100
AcDbEntity
  8
Layer 1
 62
     7
420
 16777215
370
    25
100
AcDbVertex
100
AcDb2dVertex
 10
19.28531273929374
 20
-67.44864067003763
 30
0.0
  0
VERTEX
  5
129
330
127
100
AcDbEntity
  8
Layer 1
 62
     7
420
 16777215
370
    25
100
AcDbVertex
100
AcDb2dVertex
 10
19.28531273929374
 20
-129.5289577587315
 30
0.0
  0
SEQEND
  5
12A
330
127
100
AcDbEntity
  8
Layer 1
370
    25
  0
POLYLINE
  5
12B
330
B5
100
AcDbEntity
  8
Layer 1
 62
     7
420
 16777215
370
    25
100
AcDb2dPolyline
 66
     1
 10
0.0
 20
0.0
 30
0.0
  0
VERTEX
  5
12C
330
12B
100
AcDbEntity
  8
Layer 1
 62
     7
420
 16777215
370
    25
100
AcDbVertex
100
AcDb2dVertex
 10
19.28531273929374
 20
-196.0677481108914
 30
0.0
  0
VERTEX
  5
12D
330
12B
100
AcDbEntity
  8
Layer 1
 62
     7
420
 16777215
370
    25
100
AcDbVertex
100
AcDb2dVertex
 10
19.28531273929374
 20
-133.9874310221976
 30
0.0
  0
SEQEND
  5
12E
330
12B
100
AcDbEntity
  8
Layer 1
370
    25
  0
POLYLINE
  5
12F
330
B5
100
AcDbEntity
  8
Layer 1
 62
     7
420
 16777215
370
    25
100
AcDb2dPolyline
 66
     1
 10
0.0
 20
0.0
 30
0.0
  0
VERTEX
  5
130
330
12F
100
AcDbEntity
  8
Layer 1
 62
     7
420
 16777215
370
    25
100
AcDbVertex
100
AcDb2dVertex
 10
172.5652912060768
 20
-191.2842298739616
 30
0.0
  0
VERTEX
  5
131
330
12F
100
AcDbEntity
  8
Layer 1
 62
     7
420
 16777215
370
    25
100
AcDbVertex
100
AcDb2dVertex
 10
171.6196118715163
 20
-191.4234118233832
 30
0.0
  0
SEQEND
  5
132
330
12F
100
AcDbEntity
  8
Layer 1
370
    25
  0
POLYLINE
  5
133
330
B5
100
AcDbEntity
  8
Layer 1
 62
     7
420
 16777215
370
    25
100
AcDb2dPolyline
 66
     1
 10
0.0
 20
0.0
 30
0.0
  0
VERTEX
  5
134
330
133
100
AcDbEntity
  8
Layer 1
 62
     7
420
 16777215
370
    25
100
AcDbVertex
100
AcDb2dVertex
 10
171.6196118715163
 20
-202.7419359973906
 30
0.0
  0
VERTEX
  5
135
330
133
100
AcDbEntity
  8
Layer 1
 62
     7
420
 16777215
370
    25
100
AcDbVertex
100
AcDb2dVertex
 10
140.6326800875299
 20
-202.7419359973906
 30
0.0
  0
SEQEND
  5
136
330
133
100
AcDbEntity
  8
Layer 1
370
    25
  0
POLYLINE
  5
137
330
B5
100
AcDbEntity
  8
Layer 1
 62
     7
420
 16777215
370
    25
100
AcDb2dPolyline
 66
     1
 10
0.0
 20
0.0
 30
0.0
  0
VERTEX
  5
138
330
137
100
AcDbEntity
  8
Layer 1
 62
     7
420
 16777215
370
    25
100
AcDbVertex
100
AcDb2dVertex
 10
104.741651645085
 20
-202.7419359973906
 30
0.0
  0
VERTEX
  5
139
330
137
100
AcDbEntity
  8
Layer 1
 62
     7
420
 16777215
370
    25
100
AcDbVertex
100
AcDb2dVertex
 10
135.7282389192956
 20
-202.7419359973906
 30
0.0
  0
SEQEND
  5
13A
330
137
100
AcDbEntity
  8
Layer 1
370
    25
  0
POLYLINE
  5
13B
330
B5
100
AcDbEntity
  8
Layer 1
 62
     7
420
 16777215
370
    25
100
AcDb2dPolyline
 66
     1
 10
0.0
 20
0.0
 30
0.0
  0
VERTEX
  5
13C
330
13B
100
AcDbEntity
  8
Layer 1
 62
     7
420
 16777215
370
    25
100
AcDbVertex
100
AcDb2dVertex
 10
103.6269902654965
 20
-196.0677481108914
 30
0.0
  0
VERTEX
  5
13D
330
13B
100
AcDbEntity
  8
Layer 1
 62
     7
420
 16777215
370
    25
100
AcDbVertex
100
AcDb2dVertex
 10
17.05598998011673
 20
-196.0677481108914
 30
0.0
  0
SEQEND
  5
13E
330
13B
100
AcDbEntity
  8
Layer 1
370
    25
  0
POLYLINE
  5
13F
330
B5
100
AcDbEntity
  8
Layer 1
 62
     7
420
 16777215
370
    25
100
AcDb2dPolyline
 66
     1
 10
0.0
 20
0.0
 30
0.0
  0
VERTEX
  5
140
330
13F
100
AcDbEntity
  8
Layer 1
 62
     7
420
 16777215
370
    25
100
AcDbVertex
100
AcDb2dVertex
 10
172.7344455059927
 20
-196.0677481108914
 30
0.0
  0
VERTEX
  5
141
330
13F
100
AcDbEntity
  8
Layer 1
 62
     7
420
 16777215
370
    25
100
AcDbVertex
100
AcDb2dVertex
 10
193.1001409021832
 20
-196.0677481108914
 30
0.0
  0
SEQEND
  5
142
330
13F
100
AcDbEntity
  8
Layer 1
370
    25
  0
POLYLINE
  5
143
330
B5
100
AcDbEntity
  8
Layer 1
 62
     7
420
 16777215
370
    25
100
AcDb2dPolyline
 66
     1
 10
0.0
 20
0.0
 30
0.0
  0
VERTEX
  5
144
330
143
100
AcDbEntity
  8
Layer 1
 62
     7
420
 16777215
370
    25
100
AcDbVertex
100
AcDb2dVertex
 10
104.741651645085
 20
-188.8223630161222
 30
0.0
  0
VERTEX
  5
145
330
143
100
AcDbEntity
  8
Layer 1
 62
     7
420
 16777215
370
    25
100
AcDbVertex
100
AcDb2dVertex
 10
103.7958000556366
 20
-188.9615449655438
 30
0.0
  0
SEQEND
  5
146
330
143
100
AcDbEntity
  8
Layer 1
370
    25
  0
POLYLINE
  5
147
330
B5
100
AcDbEntity
  8
Layer 1
 62
     7
420
 16777215
370
    25
100
AcDb2dPolyline
 66
     1
 10
0.0
 20
0.0
 30
0.0
  0
VERTEX
  5
148
330
147
100
AcDbEntity
  8
Layer 1
 62
     7
420
 16777215
370
    25
100
AcDbVertex
100
AcDb2dVertex
 10
171.6196118715163
 20
-191.4234118233832
 30
0.0
  0
VERTEX
  5
149
330
147
100
AcDbEntity
  8
Layer 1
 62
     7
420
 16777215
370
    25
100
AcDbVertex
100
AcDb2dVertex
 10
104.741651645085
 20
-191.4234118233832
 30
0.0
  0
SEQEND
  5
14A
330
147
100
AcDbEntity
  8
Layer 1
370
    25
  0
POLYLINE
  5
14B
330
B5
100
AcDbEntity
  8
Layer 1
 62
   252
420
 10000536
370
    25
100
AcDb2dPolyline
 66
     1
 10
0.0
 20
0.0
 30
0.0
  0
VERTEX
  5
14C
330
14B
100
AcDbEntity
  8
Layer 1
 62
   252
420
 10000536
370
    25
100
AcDbVertex
100
AcDb2dVertex
 10
103.7958000556366
 20
-191.2842298739616
 30
0.0
  0
VERTEX
  5
14D
330
14B
100
AcDbEntity
  8
Layer 1
 62
   252
420
 10000536
370
    25
100
AcDbVertex
100
AcDb2dVertex
 10
172.5652912060768
 20
-191.2842298739616
 30
0.0
  0
SEQEND
  5
14E
330
14B
100
AcDbEntity
  8
Layer 1
370
    25
  0
POLYLINE
  5
14F
330
B5
100
AcDbEntity
  8
Layer 1
 62
   252
420
 10000536
370
    25
100
AcDb2dPolyline
 66
     1
 10
0.0
 20
0.0
 30
0.0
  0
VERTEX
  5
150
330
14F
100
AcDbEntity
  8
Layer 1
 62
   252
420
 10000536
370
    25
100
AcDbVertex
100
AcDb2dVertex
 10
103.4783342972405
 20
-190.9166379431871
 30
0.0
  0
VERTEX
  5
151
330
14F
100
AcDbEntity
  8
Layer 1
 62
   252
420
 10000536
370
    25
100
AcDbVertex
100
AcDb2dVertex
 10
172.8829292193608
 20
-190.9166379431871
 30
0.0
  0
SEQEND
  5
152
330
14F
100
AcDbEntity
  8
Layer 1
370
    25
  0
POLYLINE
  5
153
330
B5
100
AcDbEntity
  8
Layer 1
 62
   252
420
 10000536
370
    25
100
AcDb2dPolyline
 66
     1
 10
0.0
 20
0.0
 30
0.0
  0
VERTEX
  5
154
330
153
100
AcDbEntity
  8
Layer 1
 62
   252
420
 10000536
370
    25
100
AcDbVertex
100
AcDb2dVertex
 10
103.4783342972405
 20
-189.3291368963183
 30
0.0
  0
VERTEX
  5
155
330
153
100
AcDbEntity
  8
Layer 1
 62
   252
420
 10000536
370
    25
100
AcDbVertex
100
AcDb2dVertex
 10
172.8829292193608
 20
-189.3291368963183
 30
0.0
  0
SEQEND
  5
156
330
153
100
AcDbEntity
  8
Layer 1
370
    25
  0
POLYLINE
  5
157
330
B5
100
AcDbEntity
  8
Layer 1
 62
   252
420
 10000536
370
    25
100
AcDb2dPolyline
 66
     1
 10
0.0
 20
0.0
 30
0.0
  0
VERTEX
  5
158
330
157
100
AcDbEntity
  8
Layer 1
 62
   252
420
 10000536
370
    25
100
AcDbVertex
100
AcDb2dVertex
 10
103.7958000556366
 20
-188.9615449655438
 30
0.0
  0
VERTEX
  5
159
330
157
100
AcDbEntity
  8
Layer 1
 62
   252
420
 10000536
370
    25
100
AcDbVertex
100
AcDb2dVertex
 10
172.5652912060768
 20
-188.9615449655438
 30
0.0
  0
SEQEND
  5
15A
330
157
100
AcDbEntity
  8
Layer 1
370
    25
  0
POLYLINE
  5
15B
330
B5
100
AcDbEntity
  8
Layer 1
 62
     7
420
 16777215
370
    25
100
AcDb2dPolyline
 66
     1
 10
0.0
 20
0.0
 30
0.0
  0
VERTEX
  5
15C
330
15B
100
AcDbEntity
  8
Layer 1
 62
     7
420
 16777215
370
    25
100
AcDbVertex
100
AcDb2dVertex
 10
171.6196118715163
 20
-188.8223630161222
 30
0.0
  0
VERTEX
  5
15D
330
15B
100
AcDbEntity
  8
Layer 1
 62
     7
420
 16777215
370
    25
100
AcDbVertex
100
AcDb2dVertex
 10
104.741651645085
 20
-188.8223630161222
 30
0.0
  0
SEQEND
  5
15E
330
15B
100
AcDbEntity
  8
Layer 1
370
    25
  0
POLYLINE
  5
15F
330
B5
100
AcDbEntity
  8
Layer 1
 62
     7
420
 16777215
370
    25
100
AcDb2dPolyline
 66
     1
 10
0.0
 20
0.0
 30
0.0
  0
VERTEX
  5
160
330
15F
100
AcDbEntity
  8
Layer 1
 62
     7
420
 16777215
370
    25
100
AcDbVertex
100
AcDb2dVertex
 10
103.7958000556366
 20
-191.2842298739616
 30
0.0
  0
VERTEX
  5
161
330
15F
100
AcDbEntity
  8
Layer 1
 62
     7
420
 16777215
370
    25
100
AcDbVertex
100
AcDb2dVertex
 10
104.741651645085
 20
-191.4234118233832
 30
0.0
  0
SEQEND
  5
162
330
15F
100
AcDbEntity
  8
Layer 1
370
    25
  0
POLYLINE
  5
163
330
B5
100
AcDbEntity
  8
Layer 1
 62
     7
420
 16777215
370
    25
100
AcDb2dPolyline
 66
     1
 10
0.0
 20
0.0
 30
0.0
  0
VERTEX
  5
164
330
163
100
AcDbEntity
  8
Layer 1
 62
     7
420
 16777215
370
    25
100
AcDbVertex
100
AcDb2dVertex
 10
35.71894580943469
 20
-92.2082137467325
 30
0.0
  0
VERTEX
  5
165
330
163
100
AcDbEntity
  8
Layer 1
 62
     7
420
 16777215
370
    25
100
AcDbVertex
100
AcDb2dVertex
 10
35.71894580943469
 20
-212.5353153939483
 30
0.0
  0
SEQEND
  5
166
330
163
100
AcDbEntity
  8
Layer 1
370
    25
  0
POLYLINE
  5
167
330
B5
100
AcDbEntity
  8
Layer 1
 62
     7
420
 16777215
370
    25
100
AcDb2dPolyline
 66
     1
 10
0.0
 20
0.0
 30
0.0
  0
VERTEX
  5
168
330
167
100
AcDbEntity
  8
Layer 1
 62
     7
420
 16777215
370
    25
100
AcDbVertex
100
AcDb2dVertex
 10
172.5652912060768
 20
-172.7072292337048
 30
0.0
  0
VERTEX
  5
169
330
167
100
AcDbEntity
  8
Layer 1
 62
     7
420
 16777215
370
    25
100
AcDbVertex
100
AcDb2dVertex
 10
171.6196118715163
 20
-172.8460666733507
 30
0.0
  0
SEQEND
  5
16A
330
167
100
AcDbEntity
  8
Layer 1
370
    25
  0
POLYLINE
  5
16B
330
B5
100
AcDbEntity
  8
Layer 1
 62
     7
420
 16777215
370
    25
100
AcDb2dPolyline
 66
     1
 10
0.0
 20
0.0
 30
0.0
  0
VERTEX
  5
16C
330
16B
100
AcDbEntity
  8
Layer 1
 62
     7
420
 16777215
370
    25
100
AcDbVertex
100
AcDb2dVertex
 10
171.6196118715163
 20
-172.8460666733507
 30
0.0
  0
VERTEX
  5
16D
330
16B
100
AcDbEntity
  8
Layer 1
 62
     7
420
 16777215
370
    25
100
AcDbVertex
100
AcDb2dVertex
 10
104.741651645085
 20
-172.8460666733507
 30
0.0
  0
SEQEND
  5
16E
330
16B
100
AcDbEntity
  8
Layer 1
370
    25
  0
POLYLINE
  5
16F
330
B5
100
AcDbEntity
  8
Layer 1
 62
   252
420
 10000536
370
    25
100
AcDb2dPolyline
 66
     1
 10
0.0
 20
0.0
 30
0.0
  0
VERTEX
  5
170
330
16F
100
AcDbEntity
  8
Layer 1
 62
   252
420
 10000536
370
    25
100
AcDbVertex
100
AcDb2dVertex
 10
103.7958000556366
 20
-172.7072292337048
 30
0.0
  0
VERTEX
  5
171
330
16F
100
AcDbEntity
  8
Layer 1
 62
   252
420
 10000536
370
    25
100
AcDbVertex
100
AcDb2dVertex
 10
172.5652912060768
 20
-172.7072292337048
 30
0.0
  0
SEQEND
  5
172
330
16F
100
AcDbEntity
  8
Layer 1
370
    25
  0
POLYLINE
  5
173
330
B5
100
AcDbEntity
  8
Layer 1
 62
   252
420
 10000536
370
    25
100
AcDb2dPolyline
 66
     1
 10
0.0
 20
0.0
 30
0.0
  0
VERTEX
  5
174
330
173
100
AcDbEntity
  8
Layer 1
 62
   252
420
 10000536
370
    25
100
AcDbVertex
100
AcDb2dVertex
 10
103.4783342972405
 20
-172.3392927931545
 30
0.0
  0
VERTEX
  5
175
330
173
100
AcDbEntity
  8
Layer 1
 62
   252
420
 10000536
370
    25
100
AcDbVertex
100
AcDb2dVertex
 10
172.8829292193608
 20
-172.3392927931545
 30
0.0
  0
SEQEND
  5
176
330
173
100
AcDbEntity
  8
Layer 1
370
    25
  0
POLYLINE
  5
177
330
B5
100
AcDbEntity
  8
Layer 1
 62
     7
420
 16777215
370
    25
100
AcDb2dPolyline
 66
     1
 10
0.0
 20
0.0
 30
0.0
  0
VERTEX
  5
178
330
177
100
AcDbEntity
  8
Layer 1
 62
     7
420
 16777215
370
    25
100
AcDbVertex
100
AcDb2dVertex
 10
171.6196118715163
 20
-188.8223630161222
 30
0.0
  0
VERTEX
  5
179
330
177
100
AcDbEntity
  8
Layer 1
 62
     7
420
 16777215
370
    25
100
AcDbVertex
100
AcDb2dVertex
 10
172.5652912060768
 20
-188.9615449655438
 30
0.0
  0
SEQEND
  5
17A
330
177
100
AcDbEntity
  8
Layer 1
370
    25
  0
POLYLINE
  5
17B
330
B5
100
AcDbEntity
  8
Layer 1
 62
     7
420
 16777215
370
    25
100
AcDb2dPolyline
 66
     1
 10
0.0
 20
0.0
 30
0.0
  0
VERTEX
  5
17C
330
17B
100
AcDbEntity
  8
Layer 1
 62
     7
420
 16777215
370
    25
100
AcDbVertex
100
AcDb2dVertex
 10
103.7958000556366
 20
-172.7072292337048
 30
0.0
  0
VERTEX
  5
17D
330
17B
100
AcDbEntity
  8
Layer 1
 62
     7
420
 16777215
370
    25
100
AcDbVertex
100
AcDb2dVertex
 10
104.741651645085
 20
-172.8460666733507
 30
0.0
  0
SEQEND
  5
17E
330
17B
100
AcDbEntity
  8
Layer 1
370
    25
  0
POLYLINE
  5
17F
330
B5
100
AcDbEntity
  8
Layer 1
 62
     7
420
 16777215
370
    25
100
AcDb2dPolyline
 66
     1
 10
0.0
 20
0.0
 30
0.0
  0
VERTEX
  5
180
330
17F
100
AcDbEntity
  8
Layer 1
 62
     7
420
 16777215
370
    25
100
AcDbVertex
100
AcDb2dVertex
 10
104.741651645085
 20
-170.2453623758654
 30
0.0
  0
VERTEX
  5
181
330
17F
100
AcDbEntity
  8
Layer 1
 62
     7
420
 16777215
370
    25
100
AcDbVertex
100
AcDb2dVertex
 10
103.7958000556366
 20
-170.3841998155112
 30
0.0
  0
SEQEND
  5
182
330
17F
100
AcDbEntity
  8
Layer 1
370
    25
  0
POLYLINE
  5
183
330
B5
100
AcDbEntity
  8
Layer 1
 62
   252
420
 10000536
370
    25
100
AcDb2dPolyline
 66
     1
 10
0.0
 20
0.0
 30
0.0
  0
VERTEX
  5
184
330
183
100
AcDbEntity
  8
Layer 1
 62
   252
420
 10000536
370
    25
100
AcDbVertex
100
AcDb2dVertex
 10
103.4783342972405
 20
-170.7521362560615
 30
0.0
  0
VERTEX
  5
185
330
183
100
AcDbEntity
  8
Layer 1
 62
   252
420
 10000536
370
    25
100
AcDbVertex
100
AcDb2dVertex
 10
172.8829292193608
 20
-170.7521362560615
 30
0.0
  0
SEQEND
  5
186
330
183
100
AcDbEntity
  8
Layer 1
370
    25
  0
POLYLINE
  5
187
330
B5
100
AcDbEntity
  8
Layer 1
 62
   252
420
 10000536
370
    25
100
AcDb2dPolyline
 66
     1
 10
0.0
 20
0.0
 30
0.0
  0
VERTEX
  5
188
330
187
100
AcDbEntity
  8
Layer 1
 62
   252
420
 10000536
370
    25
100
AcDbVertex
100
AcDb2dVertex
 10
103.7958000556366
 20
-170.3841998155112
 30
0.0
  0
VERTEX
  5
189
330
187
100
AcDbEntity
  8
Layer 1
 62
   252
420
 10000536
370
    25
100
AcDbVertex
100
AcDb2dVertex
 10
172.5652912060768
 20
-170.3841998155112
 30
0.0
  0
SEQEND
  5
18A
330
187
100
AcDbEntity
  8
Layer 1
370
    25
  0
POLYLINE
  5
18B
330
B5
100
AcDbEntity
  8
Layer 1
 62
     7
420
 16777215
370
    25
100
AcDb2dPolyline
 66
     1
 10
0.0
 20
0.0
 30
0.0
  0
VERTEX
  5
18C
330
18B
100
AcDbEntity
  8
Layer 1
 62
     7
420
 16777215
370
    25
100
AcDbVertex
100
AcDb2dVertex
 10
171.6196118715163
 20
-170.2453623758654
 30
0.0
  0
VERTEX
  5
18D
330
18B
100
AcDbEntity
  8
Layer 1
 62
     7
420
 16777215
370
    25
100
AcDbVertex
100
AcDb2dVertex
 10
104.741651645085
 20
-170.2453623758654
 30
0.0
  0
SEQEND
  5
18E
330
18B
100
AcDbEntity
  8
Layer 1
370
    25
  0
POLYLINE
  5
18F
330
B5
100
AcDbEntity
  8
Layer 1
 62
   252
420
 10000536
370
    25
100
AcDb2dPolyline
 66
     1
 10
0.0
 20
0.0
 30
0.0
  0
VERTEX
  5
190
330
18F
100
AcDbEntity
  8
Layer 1
 62
   252
420
 10000536
370
    25
100
AcDbVertex
100
AcDb2dVertex
 10
107.4629343640989
 20
-71.11370791984517
 30
0.0
  0
VERTEX
  5
191
330
18F
100
AcDbEntity
  8
Layer 1
 62
   252
420
 10000536
370
    25
100
AcDbVertex
100
AcDb2dVertex
 10
107.4033341728862
 20
-71.13403399661715
 30
0.0
  0
VERTEX
  5
192
330
18F
100
AcDbEntity
  8
Layer 1
 62
   252
420
 10000536
370
    25
100
AcDbVertex
100
AcDb2dVertex
 10
107.3258194733321
 20
-71.15384330872543
 30
0.0
  0
VERTEX
  5
193
330
18F
100
AcDbEntity
  8
Layer 1
 62
   252
420
 10000536
370
    25
100
AcDbVertex
100
AcDb2dVertex
 10
107.2324573240913
 20
-71.17244683661842
 30
0.0
  0
VERTEX
  5
194
330
18F
100
AcDbEntity
  8
Layer 1
 62
   252
420
 10000536
370
    25
100
AcDbVertex
100
AcDb2dVertex
 10
107.1256592935945
 20
-71.18915556074454
 30
0.0
  0
VERTEX
  5
195
330
18F
100
AcDbEntity
  8
Layer 1
 62
   252
420
 10000536
370
    25
100
AcDbVertex
100
AcDb2dVertex
 10
107.0085259698238
 20
-71.20379722621587
 30
0.0
  0
VERTEX
  5
196
330
18F
100
AcDbEntity
  8
Layer 1
 62
   252
420
 10000536
370
    25
100
AcDbVertex
100
AcDb2dVertex
 10
106.8851914700888
 20
-71.21585506836874
 30
0.0
  0
VERTEX
  5
197
330
18F
100
AcDbEntity
  8
Layer 1
 62
   252
420
 10000536
370
    25
100
AcDbVertex
100
AcDb2dVertex
 10
106.7584118725958
 20
-71.22515683231524
 30
0.0
  0
VERTEX
  5
198
330
18F
100
AcDbEntity
  8
Layer 1
 62
   252
420
 10000536
370
    25
100
AcDbVertex
100
AcDb2dVertex
 10
106.6326658044302
 20
-71.23084124361587
 30
0.0
  0
VERTEX
  5
199
330
18F
100
AcDbEntity
  8
Layer 1
 62
   252
420
 10000536
370
    25
100
AcDbVertex
100
AcDb2dVertex
 10
106.5110538535741
 20
-71.23325281204644
 30
0.0
  0
VERTEX
  5
19A
330
18F
100
AcDbEntity
  8
Layer 1
 62
   252
420
 10000536
370
    25
100
AcDbVertex
100
AcDb2dVertex
 10
106.3970211177856
 20
-71.23187477294326
 30
0.0
  0
VERTEX
  5
19B
330
18F
100
AcDbEntity
  8
Layer 1
 62
   252
420
 10000536
370
    25
100
AcDbVertex
100
AcDb2dVertex
 10
106.2947017143741
 20
-71.22739614585791
 30
0.0
  0
VERTEX
  5
19C
330
18F
100
AcDbEntity
  8
Layer 1
 62
   252
420
 10000536
370
    25
100
AcDbVertex
100
AcDb2dVertex
 10
106.2061627019945
 20
-71.2196446759025
 30
0.0
  0
VERTEX
  5
19D
330
18F
100
AcDbEntity
  8
Layer 1
 62
   252
420
 10000536
370
    25
100
AcDbVertex
100
AcDb2dVertex
 10
106.1345046686289
 20
-71.20862036307702
 30
0.0
  0
VERTEX
  5
19E
330
18F
100
AcDbEntity
  8
Layer 1
 62
   252
420
 10000536
370
    25
100
AcDbVertex
100
AcDb2dVertex
 10
106.0817946729321
 20
-71.19466771715727
 30
0.0
  0
SEQEND
  5
19F
330
18F
100
AcDbEntity
  8
Layer 1
370
    25
  0
POLYLINE
  5
1A0
330
B5
100
AcDbEntity
  8
Layer 1
 62
   252
420
 10000536
370
    25
100
AcDb2dPolyline
 66
     1
 10
0.0
 20
0.0
 30
0.0
  0
VERTEX
  5
1A1
330
1A0
100
AcDbEntity
  8
Layer 1
 62
   252
420
 10000536
370
    25
100
AcDbVertex
100
AcDb2dVertex
 10
171.6196118715163
 20
-160.8281876544771
 30
0.0
  0
VERTEX
  5
1A2
330
1A0
100
AcDbEntity
  8
Layer 1
 62
   252
420
 10000536
370
    25
100
AcDbVertex
100
AcDb2dVertex
 10
104.741651645085
 20
-160.8281876544771
 30
0.0
  0
SEQEND
  5
1A3
330
1A0
100
AcDbEntity
  8
Layer 1
370
    25
  0
POLYLINE
  5
1A4
330
B5
100
AcDbEntity
  8
Layer 1
 62
   252
420
 10000536
370
    25
100
AcDb2dPolyline
 66
     1
 10
0.0
 20
0.0
 30
0.0
  0
VERTEX
  5
1A5
330
1A4
100
AcDbEntity
  8
Layer 1
 62
   252
420
 10000536
370
    25
100
AcDbVertex
100
AcDb2dVertex
 10
171.2478858234322
 20
-160.1849879030657
 30
0.0
  0
VERTEX
  5
1A6
330
1A4
100
AcDbEntity
  8
Layer 1
 62
   252
420
 10000536
370
    25
100
AcDbVertex
100
AcDb2dVertex
 10
105.1130331833933
 20
-160.1849879030657
 30
0.0
  0
SEQEND
  5
1A7
330
1A4
100
AcDbEntity
  8
Layer 1
370
    25
  0
POLYLINE
  5
1A8
330
B5
100
AcDbEntity
  8
Layer 1
 62
     7
420
 16777215
370
    25
100
AcDb2dPolyline
 66
     1
 10
0.0
 20
0.0
 30
0.0
  0
VERTEX
  5
1A9
330
1A8
100
AcDbEntity
  8
Layer 1
 62
     7
420
 16777215
370
    25
100
AcDbVertex
100
AcDb2dVertex
 10
171.6196118715163
 20
-170.2453623758654
 30
0.0
  0
VERTEX
  5
1AA
330
1A8
100
AcDbEntity
  8
Layer 1
 62
     7
420
 16777215
370
    25
100
AcDbVertex
100
AcDb2dVertex
 10
172.5652912060768
 20
-170.3841998155112
 30
0.0
  0
SEQEND
  5
1AB
330
1A8
100
AcDbEntity
  8
Layer 1
370
    25
  0
POLYLINE
  5
1AC
330
B5
100
AcDbEntity
  8
Layer 1
 62
     7
420
 16777215
370
    25
100
AcDb2dPolyline
 66
     1
 10
0.0
 20
0.0
 30
0.0
  0
VERTEX
  5
1AD
330
1AC
100
AcDbEntity
  8
Layer 1
 62
     7
420
 16777215
370
    25
100
AcDbVertex
100
AcDb2dVertex
 10
107.70788081469
 20
-74.40102020049221
 30
0.0
  0
VERTEX
  5
1AE
330
1AC
100
AcDbEntity
  8
Layer 1
 62
     7
420
 16777215
370
    25
100
AcDbVertex
100
AcDb2dVertex
 10
107.7375086554085
 20
-74.39257971098522
 30
0.0
  0
VERTEX
  5
1AF
330
1AC
100
AcDbEntity
  8
Layer 1
 62
     7
420
 16777215
370
    25
100
AcDbVertex
100
AcDb2dVertex
 10
107.7709261036607
 20
-74.38034961394445
 30
0.0
  0
VERTEX
  5
1B0
330
1AC
100
AcDbEntity
  8
Layer 1
 62
     7
420
 16777215
370
    25
100
AcDbVertex
100
AcDb2dVertex
 10
107.8095111985499
 20
-74.36432990936993
 30
0.0
  0
VERTEX
  5
1B1
330
1AC
100
AcDbEntity
  8
Layer 1
 62
     7
420
 16777215
370
    25
100
AcDbVertex
100
AcDb2dVertex
 10
107.8529194303002
 20
-74.34383157771005
 30
0.0
  0
VERTEX
  5
1B2
330
1AC
100
AcDbEntity
  8
Layer 1
 62
     7
420
 16777215
370
    25
100
AcDbVertex
100
AcDb2dVertex
 10
107.9004617793601
 20
-74.31919912874062
 30
0.0
  0
VERTEX
  5
1B3
330
1AC
100
AcDbEntity
  8
Layer 1
 62
     7
420
 16777215
370
    25
100
AcDbVertex
100
AcDb2dVertex
 10
107.9528272652811
 20
-74.28991579779795
 30
0.0
  0
VERTEX
  5
1B4
330
1AC
100
AcDbEntity
  8
Layer 1
 62
     7
420
 16777215
370
    25
100
AcDbVertex
100
AcDb2dVertex
 10
108.0086378489601
 20
-74.25598158488204
 30
0.0
  0
VERTEX
  5
1B5
330
1AC
100
AcDbEntity
  8
Layer 1
 62
     7
420
 16777215
370
    25
100
AcDbVertex
100
AcDb2dVertex
 10
108.0682380401728
 20
-74.21756874488075
 30
0.0
  0
VERTEX
  5
1B6
330
1AC
100
AcDbEntity
  8
Layer 1
 62
     7
420
 16777215
370
    25
100
AcDbVertex
100
AcDb2dVertex
 10
108.1312833291435
 20
-74.17450502290623
 30
0.0
  0
VERTEX
  5
1B7
330
1AC
100
AcDbEntity
  8
Layer 1
 62
     7
420
 16777215
370
    25
100
AcDbVertex
100
AcDb2dVertex
 10
108.1967401865448
 20
-74.12747943851006
 30
0.0
  0
VERTEX
  5
1B8
330
1AC
100
AcDbEntity
  8
Layer 1
 62
     7
420
 16777215
370
    25
100
AcDbVertex
100
AcDb2dVertex
 10
108.263919592825
 20
-74.07649199169222
 30
0.0
  0
VERTEX
  5
1B9
330
1AC
100
AcDbEntity
  8
Layer 1
 62
     7
420
 16777215
370
    25
100
AcDbVertex
100
AcDb2dVertex
 10
108.3321325284327
 20
-74.02223170200433
 30
0.0
  0
VERTEX
  5
1BA
330
1AC
100
AcDbEntity
  8
Layer 1
 62
     7
420
 16777215
370
    25
100
AcDbVertex
100
AcDb2dVertex
 10
108.3996564444887
 20
-73.96504307922217
 30
0.0
  0
VERTEX
  5
1BB
330
1AC
100
AcDbEntity
  8
Layer 1
 62
     7
420
 16777215
370
    25
100
AcDbVertex
100
AcDb2dVertex
 10
108.4658023214416
 20
-73.90578739778522
 30
0.0
  0
VERTEX
  5
1BC
330
1AC
100
AcDbEntity
  8
Layer 1
 62
     7
420
 16777215
370
    25
100
AcDbVertex
100
AcDb2dVertex
 10
108.5298811397397
 20
-73.8454981870209
 30
0.0
  0
VERTEX
  5
1BD
330
1AC
100
AcDbEntity
  8
Layer 1
 62
     7
420
 16777215
370
    25
100
AcDbVertex
100
AcDb2dVertex
 10
108.590170350504
 20
-73.78469221159287
 30
0.0
  0
VERTEX
  5
1BE
330
1AC
100
AcDbEntity
  8
Layer 1
 62
     7
420
 16777215
370
    25
100
AcDbVertex
100
AcDb2dVertex
 10
108.6452919146314
 20
-73.72474751060433
 30
0.0
  0
VERTEX
  5
1BF
330
1AC
100
AcDbEntity
  8
Layer 1
 62
     7
420
 16777215
370
    25
100
AcDbVertex
100
AcDb2dVertex
 10
108.6952458321218
 20
-73.666180848719
 30
0.0
  0
VERTEX
  5
1C0
330
1AC
100
AcDbEntity
  8
Layer 1
 62
     7
420
 16777215
370
    25
100
AcDbVertex
100
AcDb2dVertex
 10
108.7379650443206
 20
-73.61002575526422
 30
0.0
  0
VERTEX
  5
1C1
330
1AC
100
AcDbEntity
  8
Layer 1
 62
     7
420
 16777215
370
    25
100
AcDbVertex
100
AcDb2dVertex
 10
108.772760531676
 20
-73.5576602693432
 30
0.0
  0
SEQEND
  5
1C2
330
1AC
100
AcDbEntity
  8
Layer 1
370
    25
  0
POLYLINE
  5
1C3
330
B5
100
AcDbEntity
  8
Layer 1
 62
   252
420
 10000536
370
    25
100
AcDb2dPolyline
 66
     1
 10
0.0
 20
0.0
 30
0.0
  0
VERTEX
  5
1C4
330
1C3
100
AcDbEntity
  8
Layer 1
 62
   252
420
 10000536
370
    25
100
AcDbVertex
100
AcDb2dVertex
 10
60.33365252540725
 20
-115.7082590831166
 30
0.0
  0
VERTEX
  5
1C5
330
1C3
100
AcDbEntity
  8
Layer 1
 62
   252
420
 10000536
370
    25
100
AcDbVertex
100
AcDb2dVertex
 10
105.9419237039589
 20
-70.10016015945284
 30
0.0
  0
SEQEND
  5
1C6
330
1C3
100
AcDbEntity
  8
Layer 1
370
    25
  0
POLYLINE
  5
1C7
330
B5
100
AcDbEntity
  8
Layer 1
 62
   252
420
 10000536
370
    25
100
AcDb2dPolyline
 66
     1
 10
0.0
 20
0.0
 30
0.0
  0
VERTEX
  5
1C8
330
1C7
100
AcDbEntity
  8
Layer 1
 62
   252
420
 10000536
370
    25
100
AcDbVertex
100
AcDb2dVertex
 10
61.76922476114989
 20
-116.092904247793
 30
0.0
  0
VERTEX
  5
1C9
330
1C7
100
AcDbEntity
  8
Layer 1
 62
   252
420
 10000536
370
    25
100
AcDbVertex
100
AcDb2dVertex
 10
106.1083219256684
 20
-71.75380708327445
 30
0.0
  0
SEQEND
  5
1CA
330
1C7
100
AcDbEntity
  8
Layer 1
370
    25
  0
POLYLINE
  5
1CB
330
B5
100
AcDbEntity
  8
Layer 1
 62
     7
420
 16777215
370
    25
100
AcDb2dPolyline
 66
     1
 10
0.0
 20
0.0
 30
0.0
  0
VERTEX
  5
1CC
330
1CB
100
AcDbEntity
  8
Layer 1
 62
     7
420
 16777215
370
    25
100
AcDbVertex
100
AcDb2dVertex
 10
106.1014317301525
 20
-73.27722931184512
 30
0.0
  0
VERTEX
  5
1CD
330
1CB
100
AcDbEntity
  8
Layer 1
 62
     7
420
 16777215
370
    25
100
AcDbVertex
100
AcDb2dVertex
 10
63.84110655278805
 20
-115.5377267440975
 30
0.0
  0
SEQEND
  5
1CE
330
1CB
100
AcDbEntity
  8
Layer 1
370
    25
  0
POLYLINE
  5
1CF
330
B5
100
AcDbEntity
  8
Layer 1
 62
     7
420
 16777215
370
    25
100
AcDb2dPolyline
 66
     1
 10
0.0
 20
0.0
 30
0.0
  0
VERTEX
  5
1D0
330
1CF
100
AcDbEntity
  8
Layer 1
 62
     7
420
 16777215
370
    25
100
AcDbVertex
100
AcDb2dVertex
 10
106.1014317301525
 20
-73.27722931184512
 30
0.0
  0
VERTEX
  5
1D1
330
1CF
100
AcDbEntity
  8
Layer 1
 62
     7
420
 16777215
370
    25
100
AcDbVertex
100
AcDb2dVertex
 10
106.1196907482697
 20
-73.25621421552155
 30
0.0
  0
VERTEX
  5
1D2
330
1CF
100
AcDbEntity
  8
Layer 1
 62
     7
420
 16777215
370
    25
100
AcDbVertex
100
AcDb2dVertex
 10
106.1393278054901
 20
-73.22813666879416
 30
0.0
  0
VERTEX
  5
1D3
330
1CF
100
AcDbEntity
  8
Layer 1
 62
     7
420
 16777215
370
    25
100
AcDbVertex
100
AcDb2dVertex
 10
106.1603429018136
 20
-73.19316892655085
 30
0.0
  0
VERTEX
  5
1D4
330
1CF
100
AcDbEntity
  8
Layer 1
 62
     7
420
 16777215
370
    25
100
AcDbVertex
100
AcDb2dVertex
 10
106.1820470176888
 20
-73.15182775345531
 30
0.0
  0
VERTEX
  5
1D5
330
1CF
100
AcDbEntity
  8
Layer 1
 62
     7
420
 16777215
370
    25
100
AcDbVertex
100
AcDb2dVertex
 10
106.2047846628913
 20
-73.10497442394703
 30
0.0
  0
VERTEX
  5
1D6
330
1CF
100
AcDbEntity
  8
Layer 1
 62
     7
420
 16777215
370
    25
100
AcDbVertex
100
AcDb2dVertex
 10
106.2278668178697
 20
-73.05278119291391
 30
0.0
  0
VERTEX
  5
1D7
330
1CF
100
AcDbEntity
  8
Layer 1
 62
     7
420
 16777215
370
    25
100
AcDbVertex
100
AcDb2dVertex
 10
106.250948972848
 20
-72.99610933479543
 30
0.0
  0
VERTEX
  5
1D8
330
1CF
100
AcDbEntity
  8
Layer 1
 62
     7
420
 16777215
370
    25
100
AcDbVertex
100
AcDb2dVertex
 10
106.2736866180506
 20
-72.93633688869481
 30
0.0
  0
SEQEND
  5
1D9
330
1CF
100
AcDbEntity
  8
Layer 1
370
    25
  0
POLYLINE
  5
1DA
330
B5
100
AcDbEntity
  8
Layer 1
 62
   252
420
 10000536
370
    25
100
AcDb2dPolyline
 66
     1
 10
0.0
 20
0.0
 30
0.0
  0
VERTEX
  5
1DB
330
1DA
100
AcDbEntity
  8
Layer 1
 62
   252
420
 10000536
370
    25
100
AcDbVertex
100
AcDb2dVertex
 10
107.43744064069
 20
-71.68318257923625
 30
0.0
  0
VERTEX
  5
1DC
330
1DA
100
AcDbEntity
  8
Layer 1
 62
   252
420
 10000536
370
    25
100
AcDbVertex
100
AcDb2dVertex
 10
107.4525990708251
 20
-71.61410836918911
 30
0.0
  0
VERTEX
  5
1DD
330
1DA
100
AcDbEntity
  8
Layer 1
 62
   252
420
 10000536
370
    25
100
AcDbVertex
100
AcDb2dVertex
 10
107.4636233836505
 20
-71.54331161026299
 30
0.0
  0
VERTEX
  5
1DE
330
1DA
100
AcDbEntity
  8
Layer 1
 62
   252
420
 10000536
370
    25
100
AcDbVertex
100
AcDb2dVertex
 10
107.4705135791665
 20
-71.47234259644898
 30
0.0
  0
VERTEX
  5
1DF
330
1DA
100
AcDbEntity
  8
Layer 1
 62
   252
420
 10000536
370
    25
100
AcDbVertex
100
AcDb2dVertex
 10
107.4739586769244
 20
-71.40171809241077
 30
0.0
  0
VERTEX
  5
1E0
330
1DA
100
AcDbEntity
  8
Layer 1
 62
   252
420
 10000536
370
    25
100
AcDbVertex
100
AcDb2dVertex
 10
107.474647696476
 20
-71.33229937258784
 30
0.0
  0
VERTEX
  5
1E1
330
1DA
100
AcDbEntity
  8
Layer 1
 62
   252
420
 10000536
370
    25
100
AcDbVertex
100
AcDb2dVertex
 10
107.472925147597
 20
-71.26219163321332
 30
0.0
  0
VERTEX
  5
1E2
330
1DA
100
AcDbEntity
  8
Layer 1
 62
   252
420
 10000536
370
    25
100
AcDbVertex
100
AcDb2dVertex
 10
107.4694800498391
 20
-71.18967232540822
 30
0.0
  0
VERTEX
  5
1E3
330
1DA
100
AcDbEntity
  8
Layer 1
 62
   252
420
 10000536
370
    25
100
AcDbVertex
100
AcDb2dVertex
 10
107.4629343640989
 20
-71.11370791984517
 30
0.0
  0
SEQEND
  5
1E4
330
1DA
100
AcDbEntity
  8
Layer 1
370
    25
  0
POLYLINE
  5
1E5
330
B5
100
AcDbEntity
  8
Layer 1
 62
     7
420
 16777215
370
    25
100
AcDb2dPolyline
 66
     1
 10
0.0
 20
0.0
 30
0.0
  0
VERTEX
  5
1E6
330
1E5
100
AcDbEntity
  8
Layer 1
 62
     7
420
 16777215
370
    25
100
AcDbVertex
100
AcDb2dVertex
 10
103.4783342972405
 20
-170.7521362560615
 30
0.0
  0
VERTEX
  5
1E7
330
1E5
100
AcDbEntity
  8
Layer 1
 62
     7
420
 16777215
370
    25
100
AcDbVertex
100
AcDb2dVertex
 10
103.4783342972405
 20
-172.3392927931545
 30
0.0
  0
SEQEND
  5
1E8
330
1E5
100
AcDbEntity
  8
Layer 1
370
    25
  0
POLYLINE
  5
1E9
330
B5
100
AcDbEntity
  8
Layer 1
 62
     7
420
 16777215
370
    25
100
AcDb2dPolyline
 66
     1
 10
0.0
 20
0.0
 30
0.0
  0
VERTEX
  5
1EA
330
1E9
100
AcDbEntity
  8
Layer 1
 62
     7
420
 16777215
370
    25
100
AcDbVertex
100
AcDb2dVertex
 10
103.4783342972405
 20
-189.3291368963183
 30
0.0
  0
VERTEX
  5
1EB
330
1E9
100
AcDbEntity
  8
Layer 1
 62
     7
420
 16777215
370
    25
100
AcDbVertex
100
AcDb2dVertex
 10
103.4783342972405
 20
-190.9166379431871
 30
0.0
  0
SEQEND
  5
1EC
330
1E9
100
AcDbEntity
  8
Layer 1
370
    25
  0
POLYLINE
  5
1ED
330
B5
100
AcDbEntity
  8
Layer 1
 62
     7
420
 16777215
370
    25
100
AcDb2dPolyline
 66
     1
 10
0.0
 20
0.0
 30
0.0
  0
VERTEX
  5
1EE
330
1ED
100
AcDbEntity
  8
Layer 1
 62
     7
420
 16777215
370
    25
100
AcDbVertex
100
AcDb2dVertex
 10
104.741651645085
 20
-197.182237235592
 30
0.0
  0
VERTEX
  5
1EF
330
1ED
100
AcDbEntity
  8
Layer 1
 62
     7
420
 16777215
370
    25
100
AcDbVertex
100
AcDb2dVertex
 10
104.741651645085
 20
-204.9712587565676
 30
0.0
  0
SEQEND
  5
1F0
330
1ED
100
AcDbEntity
  8
Layer 1
370
    25
  0
POLYLINE
  5
1F1
330
B5
100
AcDbEntity
  8
Layer 1
 62
   252
420
 10000536
370
    25
100
AcDb2dPolyline
 66
     1
 10
0.0
 20
0.0
 30
0.0
  0
VERTEX
  5
1F2
330
1F1
100
AcDbEntity
  8
Layer 1
 62
   252
420
 10000536
370
    25
100
AcDbVertex
100
AcDb2dVertex
 10
107.2848228100123
 20
-72.40079644221966
 30
0.0
  0
VERTEX
  5
1F3
330
1F1
100
AcDbEntity
  8
Layer 1
 62
   252
420
 10000536
370
    25
100
AcDbVertex
100
AcDb2dVertex
 10
107.2913684957525
 20
-72.35549340670246
 30
0.0
  0
VERTEX
  5
1F4
330
1F1
100
AcDbEntity
  8
Layer 1
 62
   252
420
 10000536
370
    25
100
AcDbVertex
100
AcDb2dVertex
 10
107.3013592792505
 20
-72.29537645082603
 30
0.0
  0
VERTEX
  5
1F5
330
1F1
100
AcDbEntity
  8
Layer 1
 62
   252
420
 10000536
370
    25
100
AcDbVertex
100
AcDb2dVertex
 10
107.3154841800582
 20
-72.2182062610477
 30
0.0
  0
VERTEX
  5
1F6
330
1F1
100
AcDbEntity
  8
Layer 1
 62
   252
420
 10000536
370
    25
100
AcDbVertex
100
AcDb2dVertex
 10
107.3351212372786
 20
-72.11984872005789
 30
0.0
  0
VERTEX
  5
1F7
330
1F1
100
AcDbEntity
  8
Layer 1
 62
   252
420
 10000536
370
    25
100
AcDbVertex
100
AcDb2dVertex
 10
107.3616484900149
 20
-71.99737549476235
 30
0.0
  0
VERTEX
  5
1F8
330
1F1
100
AcDbEntity
  8
Layer 1
 62
   252
420
 10000536
370
    25
100
AcDbVertex
100
AcDb2dVertex
 10
107.3967884871461
 20
-71.84665246785153
 30
0.0
  0
VERTEX
  5
1F9
330
1F1
100
AcDbEntity
  8
Layer 1
 62
   252
420
 10000536
370
    25
100
AcDbVertex
100
AcDb2dVertex
 10
107.43744064069
 20
-71.68318257923625
 30
0.0
  0
SEQEND
  5
1FA
330
1F1
100
AcDbEntity
  8
Layer 1
370
    25
  0
POLYLINE
  5
1FB
330
B5
100
AcDbEntity
  8
Layer 1
 62
   252
420
 10000536
370
    25
100
AcDb2dPolyline
 66
     1
 10
0.0
 20
0.0
 30
0.0
  0
VERTEX
  5
1FC
330
1FB
100
AcDbEntity
  8
Layer 1
 62
   252
420
 10000536
370
    25
100
AcDbVertex
100
AcDb2dVertex
 10
106.1083219256684
 20
-71.75380708327445
 30
0.0
  0
VERTEX
  5
1FD
330
1FB
100
AcDbEntity
  8
Layer 1
 62
   252
420
 10000536
370
    25
100
AcDbVertex
100
AcDb2dVertex
 10
106.0955750639639
 20
-71.55760876595853
 30
0.0
  0
VERTEX
  5
1FE
330
1FB
100
AcDbEntity
  8
Layer 1
 62
   252
420
 10000536
370
    25
100
AcDbVertex
100
AcDb2dVertex
 10
106.0914409466544
 20
-71.4890513205751
 30
0.0
  0
VERTEX
  5
1FF
330
1FB
100
AcDbEntity
  8
Layer 1
 62
   252
420
 10000536
370
    25
100
AcDbVertex
100
AcDb2dVertex
 10
106.0883403586722
 20
-71.41997711052797
 30
0.0
  0
VERTEX
  5
200
330
1FB
100
AcDbEntity
  8
Layer 1
 62
   252
420
 10000536
370
    25
100
AcDbVertex
100
AcDb2dVertex
 10
106.0852397706901
 20
-71.34849133205026
 30
0.0
  0
VERTEX
  5
201
330
1FB
100
AcDbEntity
  8
Layer 1
 62
   252
420
 10000536
370
    25
100
AcDbVertex
100
AcDb2dVertex
 10
106.0835172218111
 20
-71.27442173025409
 30
0.0
  0
VERTEX
  5
202
330
1FB
100
AcDbEntity
  8
Layer 1
 62
   252
420
 10000536
370
    25
100
AcDbVertex
100
AcDb2dVertex
 10
106.0817946729321
 20
-71.19466771715727
 30
0.0
  0
SEQEND
  5
203
330
1FB
100
AcDbEntity
  8
Layer 1
370
    25
  0
POLYLINE
  5
204
330
B5
100
AcDbEntity
  8
Layer 1
 62
     7
420
 16777215
370
    25
100
AcDb2dPolyline
 66
     1
 10
0.0
 20
0.0
 30
0.0
  0
VERTEX
  5
205
330
204
100
AcDbEntity
  8
Layer 1
 62
     7
420
 16777215
370
    25
100
AcDbVertex
100
AcDb2dVertex
 10
57.53916147903663
 20
-65.62377238764533
 30
0.0
  0
VERTEX
  5
206
330
204
100
AcDbEntity
  8
Layer 1
 62
     7
420
 16777215
370
    25
100
AcDbVertex
100
AcDb2dVertex
 10
49.69622417814895
 20
-57.78100734164554
 30
0.0
  0
SEQEND
  5
207
330
204
100
AcDbEntity
  8
Layer 1
370
    25
  0
POLYLINE
  5
208
330
B5
100
AcDbEntity
  8
Layer 1
 62
   252
420
 10000536
370
    25
100
AcDb2dPolyline
 66
     1
 10
0.0
 20
0.0
 30
0.0
  0
VERTEX
  5
209
330
208
100
AcDbEntity
  8
Layer 1
 62
   252
420
 10000536
370
    25
100
AcDbVertex
100
AcDb2dVertex
 10
105.9419237039589
 20
-70.10016015945284
 30
0.0
  0
VERTEX
  5
20A
330
208
100
AcDbEntity
  8
Layer 1
 62
   252
420
 10000536
370
    25
100
AcDbVertex
100
AcDb2dVertex
 10
105.9863654650366
 20
-70.30049259407832
 30
0.0
  0
VERTEX
  5
20B
330
208
100
AcDbEntity
  8
Layer 1
 62
   252
420
 10000536
370
    25
100
AcDbVertex
100
AcDb2dVertex
 10
106.0215054621678
 20
-70.49634640161844
 30
0.0
  0
VERTEX
  5
20C
330
208
100
AcDbEntity
  8
Layer 1
 62
   252
420
 10000536
370
    25
100
AcDbVertex
100
AcDb2dVertex
 10
106.0476882051283
 20
-70.68565452341844
 30
0.0
  0
VERTEX
  5
20D
330
208
100
AcDbEntity
  8
Layer 1
 62
   252
420
 10000536
370
    25
100
AcDbVertex
100
AcDb2dVertex
 10
106.0662917330213
 20
-70.86600539104772
 30
0.0
  0
VERTEX
  5
20E
330
208
100
AcDbEntity
  8
Layer 1
 62
   252
420
 10000536
370
    25
100
AcDbVertex
100
AcDb2dVertex
 10
106.0773160458468
 20
-71.03602096540314
 30
0.0
  0
VERTEX
  5
20F
330
208
100
AcDbEntity
  8
Layer 1
 62
   252
420
 10000536
370
    25
100
AcDbVertex
100
AcDb2dVertex
 10
106.0817946729321
 20
-71.19466771715727
 30
0.0
  0
SEQEND
  5
210
330
208
100
AcDbEntity
  8
Layer 1
370
    25
  0
POLYLINE
  5
211
330
B5
100
AcDbEntity
  8
Layer 1
 62
   252
420
 10000536
370
    25
100
AcDb2dPolyline
 66
     1
 10
0.0
 20
0.0
 30
0.0
  0
VERTEX
  5
212
330
211
100
AcDbEntity
  8
Layer 1
 62
   252
420
 10000536
370
    25
100
AcDbVertex
100
AcDb2dVertex
 10
107.2872343784429
 20
-72.4059640888566
 30
0.0
  0
VERTEX
  5
213
330
211
100
AcDbEntity
  8
Layer 1
 62
   252
420
 10000536
370
    25
100
AcDbVertex
100
AcDb2dVertex
 10
107.2848228100123
 20
-72.40079644221966
 30
0.0
  0
SEQEND
  5
214
330
211
100
AcDbEntity
  8
Layer 1
370
    25
  0
POLYLINE
  5
215
330
B5
100
AcDbEntity
  8
Layer 1
 62
   252
420
 10000536
370
    25
100
AcDb2dPolyline
 66
     1
 10
0.0
 20
0.0
 30
0.0
  0
VERTEX
  5
216
330
215
100
AcDbEntity
  8
Layer 1
 62
   252
420
 10000536
370
    25
100
AcDbVertex
100
AcDb2dVertex
 10
138.1804595034127
 20
-146.2652426669093
 30
0.0
  0
VERTEX
  5
217
330
215
100
AcDbEntity
  8
Layer 1
 62
   252
420
 10000536
370
    25
100
AcDbVertex
100
AcDb2dVertex
 10
107.70788081469
 20
-74.40102020049221
 30
0.0
  0
SEQEND
  5
218
330
215
100
AcDbEntity
  8
Layer 1
370
    25
  0
POLYLINE
  5
219
330
B5
100
AcDbEntity
  8
Layer 1
 62
   252
420
 10000536
370
    25
100
AcDb2dPolyline
 66
     1
 10
0.0
 20
0.0
 30
0.0
  0
VERTEX
  5
21A
330
219
100
AcDbEntity
  8
Layer 1
 62
   252
420
 10000536
370
    25
100
AcDbVertex
100
AcDb2dVertex
 10
103.4731666506035
 20
-64.26778191011161
 30
0.0
  0
VERTEX
  5
21B
330
219
100
AcDbEntity
  8
Layer 1
 62
   252
420
 10000536
370
    25
100
AcDbVertex
100
AcDb2dVertex
 10
105.9419237039589
 20
-70.10016015945284
 30
0.0
  0
SEQEND
  5
21C
330
219
100
AcDbEntity
  8
Layer 1
370
    25
  0
POLYLINE
  5
21D
330
B5
100
AcDbEntity
  8
Layer 1
 62
   252
420
 10000536
370
    25
100
AcDb2dPolyline
 66
     1
 10
0.0
 20
0.0
 30
0.0
  0
VERTEX
  5
21E
330
21D
100
AcDbEntity
  8
Layer 1
 62
   252
420
 10000536
370
    25
100
AcDbVertex
100
AcDb2dVertex
 10
106.2736866180506
 20
-72.93633688869481
 30
0.0
  0
VERTEX
  5
21F
330
21D
100
AcDbEntity
  8
Layer 1
 62
   252
420
 10000536
370
    25
100
AcDbVertex
100
AcDb2dVertex
 10
106.2316564254034
 20
-72.83608454393811
 30
0.0
  0
SEQEND
  5
220
330
21D
100
AcDbEntity
  8
Layer 1
370
    25
  0
POLYLINE
  5
221
330
B5
100
AcDbEntity
  8
Layer 1
 62
   252
420
 10000536
370
    25
100
AcDb2dPolyline
 66
     1
 10
0.0
 20
0.0
 30
0.0
  0
VERTEX
  5
222
330
221
100
AcDbEntity
  8
Layer 1
 62
   252
420
 10000536
370
    25
100
AcDbVertex
100
AcDb2dVertex
 10
104.741651645085
 20
-63.74240450202245
 30
0.0
  0
VERTEX
  5
223
330
221
100
AcDbEntity
  8
Layer 1
 62
   252
420
 10000536
370
    25
100
AcDbVertex
100
AcDb2dVertex
 10
107.1201471371818
 20
-69.61198980714967
 30
0.0
  0
SEQEND
  5
224
330
221
100
AcDbEntity
  8
Layer 1
370
    25
  0
POLYLINE
  5
225
330
B5
100
AcDbEntity
  8
Layer 1
 62
   252
420
 10000536
370
    25
100
AcDb2dPolyline
 66
     1
 10
0.0
 20
0.0
 30
0.0
  0
VERTEX
  5
226
330
225
100
AcDbEntity
  8
Layer 1
 62
   252
420
 10000536
370
    25
100
AcDbVertex
100
AcDb2dVertex
 10
138.1804595034127
 20
-146.2652426669093
 30
0.0
  0
VERTEX
  5
227
330
225
100
AcDbEntity
  8
Layer 1
 62
   252
420
 10000536
370
    25
100
AcDbVertex
100
AcDb2dVertex
 10
108.772760531676
 20
-73.5576602693432
 30
0.0
  0
SEQEND
  5
228
330
225
100
AcDbEntity
  8
Layer 1
370
    25
  0
POLYLINE
  5
229
330
B5
100
AcDbEntity
  8
Layer 1
 62
   252
420
 10000536
370
    25
100
AcDb2dPolyline
 66
     1
 10
0.0
 20
0.0
 30
0.0
  0
VERTEX
  5
22A
330
229
100
AcDbEntity
  8
Layer 1
 62
   252
420
 10000536
370
    25
100
AcDbVertex
100
AcDb2dVertex
 10
106.2316564254034
 20
-72.83608454393811
 30
0.0
  0
VERTEX
  5
22B
330
229
100
AcDbEntity
  8
Layer 1
 62
   252
420
 10000536
370
    25
100
AcDbVertex
100
AcDb2dVertex
 10
106.2054736824429
 20
-72.76735484366678
 30
0.0
  0
VERTEX
  5
22C
330
229
100
AcDbEntity
  8
Layer 1
 62
   252
420
 10000536
370
    25
100
AcDbVertex
100
AcDb2dVertex
 10
106.1775683906034
 20
-72.6765765177445
 30
0.0
  0
VERTEX
  5
22D
330
229
100
AcDbEntity
  8
Layer 1
 62
   252
420
 10000536
370
    25
100
AcDbVertex
100
AcDb2dVertex
 10
106.1503521183155
 20
-72.55961544886169
 30
0.0
  0
VERTEX
  5
22E
330
229
100
AcDbEntity
  8
Layer 1
 62
   252
420
 10000536
370
    25
100
AcDbVertex
100
AcDb2dVertex
 10
106.125891924234
 20
-72.41147624526934
 30
0.0
  0
VERTEX
  5
22F
330
229
100
AcDbEntity
  8
Layer 1
 62
   252
420
 10000536
370
    25
100
AcDbVertex
100
AcDb2dVertex
 10
106.1083219256684
 20
-72.22664675055469
 30
0.0
  0
VERTEX
  5
230
330
229
100
AcDbEntity
  8
Layer 1
 62
   252
420
 10000536
370
    25
100
AcDbVertex
100
AcDb2dVertex
 10
106.1014317301525
 20
-71.99944255341713
 30
0.0
  0
VERTEX
  5
231
330
229
100
AcDbEntity
  8
Layer 1
 62
   252
420
 10000536
370
    25
100
AcDbVertex
100
AcDb2dVertex
 10
106.1083219256684
 20
-71.75380708327445
 30
0.0
  0
SEQEND
  5
232
330
229
100
AcDbEntity
  8
Layer 1
370
    25
  0
POLYLINE
  5
233
330
B5
100
AcDbEntity
  8
Layer 1
 62
   252
420
 10000536
370
    25
100
AcDb2dPolyline
 66
     1
 10
0.0
 20
0.0
 30
0.0
  0
VERTEX
  5
234
330
233
100
AcDbEntity
  8
Layer 1
 62
   252
420
 10000536
370
    25
100
AcDbVertex
100
AcDb2dVertex
 10
107.1201471371818
 20
-69.61198980714967
 30
0.0
  0
VERTEX
  5
235
330
233
100
AcDbEntity
  8
Layer 1
 62
   252
420
 10000536
370
    25
100
AcDbVertex
100
AcDb2dVertex
 10
107.2186769330595
 20
-69.87846811872801
 30
0.0
  0
VERTEX
  5
236
330
233
100
AcDbEntity
  8
Layer 1
 62
   252
420
 10000536
370
    25
100
AcDbVertex
100
AcDb2dVertex
 10
107.29894771082
 20
-70.14270711676367
 30
0.0
  0
VERTEX
  5
237
330
233
100
AcDbEntity
  8
Layer 1
 62
   252
420
 10000536
370
    25
100
AcDbVertex
100
AcDb2dVertex
 10
107.3626820193423
 20
-70.40143395838659
 30
0.0
  0
VERTEX
  5
238
330
233
100
AcDbEntity
  8
Layer 1
 62
   252
420
 10000536
370
    25
100
AcDbVertex
100
AcDb2dVertex
 10
107.4102243684021
 20
-70.65103129095093
 30
0.0
  0
VERTEX
  5
239
330
233
100
AcDbEntity
  8
Layer 1
 62
   252
420
 10000536
370
    25
100
AcDbVertex
100
AcDb2dVertex
 10
107.4429527971028
 20
-70.88891529113818
 30
0.0
  0
VERTEX
  5
23A
330
233
100
AcDbEntity
  8
Layer 1
 62
   252
420
 10000536
370
    25
100
AcDbVertex
100
AcDb2dVertex
 10
107.4629343640989
 20
-71.11370791984517
 30
0.0
  0
SEQEND
  5
23B
330
233
100
AcDbEntity
  8
Layer 1
370
    25
  0
POLYLINE
  5
23C
330
B5
100
AcDbEntity
  8
Layer 1
 62
     7
420
 16777215
370
    25
100
AcDb2dPolyline
 66
     1
 10
0.0
 20
0.0
 30
0.0
  0
VERTEX
  5
23D
330
23C
100
AcDbEntity
  8
Layer 1
 62
     7
420
 16777215
370
    25
100
AcDbVertex
100
AcDb2dVertex
 10
138.1804595034127
 20
-41.04799527633772
 30
0.0
  0
VERTEX
  5
23E
330
23C
100
AcDbEntity
  8
Layer 1
 62
     7
420
 16777215
370
    25
100
AcDbVertex
100
AcDb2dVertex
 10
138.1804595034127
 20
-21.12964582401852
 30
0.0
  0
SEQEND
  5
23F
330
23C
100
AcDbEntity
  8
Layer 1
370
    25
  0
POLYLINE
  5
240
330
B5
100
AcDbEntity
  8
Layer 1
 62
   252
420
 10000536
370
    25
100
AcDb2dPolyline
 66
     1
 10
0.0
 20
0.0
 30
0.0
  0
VERTEX
  5
241
330
240
100
AcDbEntity
  8
Layer 1
 62
   252
420
 10000536
370
    25
100
AcDbVertex
100
AcDb2dVertex
 10
106.4342281735716
 20
-73.53802321212281
 30
0.0
  0
VERTEX
  5
242
330
240
100
AcDbEntity
  8
Layer 1
 62
   252
420
 10000536
370
    25
100
AcDbVertex
100
AcDb2dVertex
 10
106.3226070062136
 20
-73.45878596368969
 30
0.0
  0
VERTEX
  5
243
330
240
100
AcDbEntity
  8
Layer 1
 62
   252
420
 10000536
370
    25
100
AcDbVertex
100
AcDb2dVertex
 10
106.2120193681831
 20
-73.37214175507695
 30
0.0
  0
VERTEX
  5
244
330
240
100
AcDbEntity
  8
Layer 1
 62
   252
420
 10000536
370
    25
100
AcDbVertex
100
AcDb2dVertex
 10
106.1014317301525
 20
-73.27722931184512
 30
0.0
  0
SEQEND
  5
245
330
240
100
AcDbEntity
  8
Layer 1
370
    25
  0
POLYLINE
  5
246
330
B5
100
AcDbEntity
  8
Layer 1
 62
   252
420
 10000536
370
    25
100
AcDb2dPolyline
 66
     1
 10
0.0
 20
0.0
 30
0.0
  0
VERTEX
  5
247
330
246
100
AcDbEntity
  8
Layer 1
 62
   252
420
 10000536
370
    25
100
AcDbVertex
100
AcDb2dVertex
 10
107.43744064069
 20
-71.68318257923625
 30
0.0
  0
VERTEX
  5
248
330
246
100
AcDbEntity
  8
Layer 1
 62
   252
420
 10000536
370
    25
100
AcDbVertex
100
AcDb2dVertex
 10
107.354758294499
 20
-71.5963661157356
 30
0.0
  0
VERTEX
  5
249
330
246
100
AcDbEntity
  8
Layer 1
 62
   252
420
 10000536
370
    25
100
AcDbVertex
100
AcDb2dVertex
 10
107.2527834008633
 20
-71.52229651393942
 30
0.0
  0
VERTEX
  5
24A
330
246
100
AcDbEntity
  8
Layer 1
 62
   252
420
 10000536
370
    25
100
AcDbVertex
100
AcDb2dVertex
 10
107.1353055673168
 20
-71.46390210694197
 30
0.0
  0
VERTEX
  5
24B
330
246
100
AcDbEntity
  8
Layer 1
 62
   252
420
 10000536
370
    25
100
AcDbVertex
100
AcDb2dVertex
 10
107.0061144013932
 20
-71.42273318873434
 30
0.0
  0
VERTEX
  5
24C
330
246
100
AcDbEntity
  8
Layer 1
 62
   252
420
 10000536
370
    25
100
AcDbVertex
100
AcDb2dVertex
 10
106.8703775497295
 20
-71.40051230819549
 30
0.0
  0
VERTEX
  5
24D
330
246
100
AcDbEntity
  8
Layer 1
 62
   252
420
 10000536
370
    25
100
AcDbVertex
100
AcDb2dVertex
 10
106.7322291296353
 20
-71.39792848487701
 30
0.0
  0
VERTEX
  5
24E
330
246
100
AcDbEntity
  8
Layer 1
 62
   252
420
 10000536
370
    25
100
AcDbVertex
100
AcDb2dVertex
 10
106.5964922779716
 20
-71.41515397366682
 30
0.0
  0
VERTEX
  5
24F
330
246
100
AcDbEntity
  8
Layer 1
 62
   252
420
 10000536
370
    25
100
AcDbVertex
100
AcDb2dVertex
 10
106.4679901315996
 20
-71.45132750012542
 30
0.0
  0
VERTEX
  5
250
330
246
100
AcDbEntity
  8
Layer 1
 62
   252
420
 10000536
370
    25
100
AcDbVertex
100
AcDb2dVertex
 10
106.3512013176047
 20
-71.50558778981332
 30
0.0
  0
VERTEX
  5
251
330
246
100
AcDbEntity
  8
Layer 1
 62
   252
420
 10000536
370
    25
100
AcDbVertex
100
AcDb2dVertex
 10
106.2499154435206
 20
-71.57586778407574
 30
0.0
  0
VERTEX
  5
252
330
246
100
AcDbEntity
  8
Layer 1
 62
   252
420
 10000536
370
    25
100
AcDbVertex
100
AcDb2dVertex
 10
106.1679221168811
 20
-71.6594114047063
 30
0.0
  0
VERTEX
  5
253
330
246
100
AcDbEntity
  8
Layer 1
 62
   252
420
 10000536
370
    25
100
AcDbVertex
100
AcDb2dVertex
 10
106.1083219256684
 20
-71.75380708327445
 30
0.0
  0
SEQEND
  5
254
330
246
100
AcDbEntity
  8
Layer 1
370
    25
  0
POLYLINE
  5
255
330
B5
100
AcDbEntity
  8
Layer 1
 62
     7
420
 16777215
370
    25
100
AcDb2dPolyline
 66
     1
 10
0.0
 20
0.0
 30
0.0
  0
VERTEX
  5
256
330
255
100
AcDbEntity
  8
Layer 1
 62
     7
420
 16777215
370
    25
100
AcDbVertex
100
AcDb2dVertex
 10
107.6827316010569
 20
-158.8978993806912
 30
0.0
  0
VERTEX
  5
257
330
255
100
AcDbEntity
  8
Layer 1
 62
     7
420
 16777215
370
    25
100
AcDbVertex
100
AcDb2dVertex
 10
138.1804595034127
 20
-146.2652426669093
 30
0.0
  0
SEQEND
  5
258
330
255
100
AcDbEntity
  8
Layer 1
370
    25
  0
POLYLINE
  5
259
330
B5
100
AcDbEntity
  8
Layer 1
 62
     7
420
 16777215
370
    25
100
AcDb2dPolyline
 66
     1
 10
0.0
 20
0.0
 30
0.0
  0
VERTEX
  5
25A
330
259
100
AcDbEntity
  8
Layer 1
 62
     7
420
 16777215
370
    25
100
AcDbVertex
100
AcDb2dVertex
 10
108.877491503518
 20
-73.47325537427314
 30
0.0
  0
VERTEX
  5
25B
330
259
100
AcDbEntity
  8
Layer 1
 62
     7
420
 16777215
370
    25
100
AcDbVertex
100
AcDb2dVertex
 10
108.8433850357142
 20
-73.48221262844383
 30
0.0
  0
VERTEX
  5
25C
330
259
100
AcDbEntity
  8
Layer 1
 62
     7
420
 16777215
370
    25
100
AcDbVertex
100
AcDb2dVertex
 10
108.8079005288072
 20
-73.50960115561963
 30
0.0
  0
VERTEX
  5
25D
330
259
100
AcDbEntity
  8
Layer 1
 62
     7
420
 16777215
370
    25
100
AcDbVertex
100
AcDb2dVertex
 10
108.772760531676
 20
-73.5576602693432
 30
0.0
  0
SEQEND
  5
25E
330
259
100
AcDbEntity
  8
Layer 1
370
    25
  0
POLYLINE
  5
25F
330
B5
100
AcDbEntity
  8
Layer 1
 62
     7
420
 16777215
370
    25
100
AcDb2dPolyline
 66
     1
 10
0.0
 20
0.0
 30
0.0
  0
VERTEX
  5
260
330
25F
100
AcDbEntity
  8
Layer 1
 62
     7
420
 16777215
370
    25
100
AcDbVertex
100
AcDb2dVertex
 10
169.0185630642552
 20
-73.47325537427314
 30
0.0
  0
VERTEX
  5
261
330
25F
100
AcDbEntity
  8
Layer 1
 62
     7
420
 16777215
370
    25
100
AcDbVertex
100
AcDb2dVertex
 10
108.877491503518
 20
-73.47325537427314
 30
0.0
  0
SEQEND
  5
262
330
25F
100
AcDbEntity
  8
Layer 1
370
    25
  0
POLYLINE
  5
263
330
B5
100
AcDbEntity
  8
Layer 1
 62
     7
420
 16777215
370
    25
100
AcDb2dPolyline
 66
     1
 10
0.0
 20
0.0
 30
0.0
  0
VERTEX
  5
264
330
263
100
AcDbEntity
  8
Layer 1
 62
     7
420
 16777215
370
    25
100
AcDbVertex
100
AcDb2dVertex
 10
107.2669083016709
 20
-72.39855712867698
 30
0.0
  0
VERTEX
  5
265
330
263
100
AcDbEntity
  8
Layer 1
 62
     7
420
 16777215
370
    25
100
AcDbVertex
100
AcDb2dVertex
 10
107.2276341872302
 20
-72.38632703163623
 30
0.0
  0
VERTEX
  5
266
330
263
100
AcDbEntity
  8
Layer 1
 62
     7
420
 16777215
370
    25
100
AcDbVertex
100
AcDb2dVertex
 10
107.1852594848072
 20
-72.37668075791393
 30
0.0
  0
VERTEX
  5
267
330
263
100
AcDbEntity
  8
Layer 1
 62
     7
420
 16777215
370
    25
100
AcDbVertex
100
AcDb2dVertex
 10
107.1377171357474
 20
-72.36961830751011
 30
0.0
  0
VERTEX
  5
268
330
263
100
AcDbEntity
  8
Layer 1
 62
     7
420
 16777215
370
    25
100
AcDbVertex
100
AcDb2dVertex
 10
107.084318120499
 20
-72.36600095486425
 30
0.0
  0
VERTEX
  5
269
330
263
100
AcDbEntity
  8
Layer 1
 62
     7
420
 16777215
370
    25
100
AcDbVertex
100
AcDb2dVertex
 10
107.0247179292862
 20
-72.36720673907953
 30
0.0
  0
VERTEX
  5
26A
330
263
100
AcDbEntity
  8
Layer 1
 62
     7
420
 16777215
370
    25
100
AcDbVertex
100
AcDb2dVertex
 10
106.9578830327818
 20
-72.37478595414704
 30
0.0
  0
VERTEX
  5
26B
330
263
100
AcDbEntity
  8
Layer 1
 62
     7
420
 16777215
370
    25
100
AcDbVertex
100
AcDb2dVertex
 10
106.8827799016582
 20
-72.39115016849736
 30
0.0
  0
VERTEX
  5
26C
330
263
100
AcDbEntity
  8
Layer 1
 62
     7
420
 16777215
370
    25
100
AcDbVertex
100
AcDb2dVertex
 10
106.7994085359155
 20
-72.41836644078526
 30
0.0
  0
VERTEX
  5
26D
330
263
100
AcDbEntity
  8
Layer 1
 62
     7
420
 16777215
370
    25
100
AcDbVertex
100
AcDb2dVertex
 10
106.7091469746569
 20
-72.45936310410501
 30
0.0
  0
VERTEX
  5
26E
330
263
100
AcDbEntity
  8
Layer 1
 62
     7
420
 16777215
370
    25
100
AcDbVertex
100
AcDb2dVertex
 10
106.6178518840709
 20
-72.5137956486808
 30
0.0
  0
VERTEX
  5
26F
330
263
100
AcDbEntity
  8
Layer 1
 62
     7
420
 16777215
370
    25
100
AcDbVertex
100
AcDb2dVertex
 10
106.5296573814671
 20
-72.58063054518526
 30
0.0
  0
VERTEX
  5
270
330
263
100
AcDbEntity
  8
Layer 1
 62
     7
420
 16777215
370
    25
100
AcDbVertex
100
AcDb2dVertex
 10
106.4490420939308
 20
-72.6579729898515
 30
0.0
  0
VERTEX
  5
271
330
263
100
AcDbEntity
  8
Layer 1
 62
     7
420
 16777215
370
    25
100
AcDbVertex
100
AcDb2dVertex
 10
106.3784175898926
 20
-72.74392817891264
 30
0.0
  0
VERTEX
  5
272
330
263
100
AcDbEntity
  8
Layer 1
 62
     7
420
 16777215
370
    25
100
AcDbVertex
100
AcDb2dVertex
 10
106.3188173986799
 20
-72.8374625830413
 30
0.0
  0
VERTEX
  5
273
330
263
100
AcDbEntity
  8
Layer 1
 62
     7
420
 16777215
370
    25
100
AcDbVertex
100
AcDb2dVertex
 10
106.2736866180506
 20
-72.93633688869481
 30
0.0
  0
SEQEND
  5
274
330
263
100
AcDbEntity
  8
Layer 1
370
    25
  0
POLYLINE
  5
275
330
B5
100
AcDbEntity
  8
Layer 1
 62
   252
420
 10000536
370
    25
100
AcDb2dPolyline
 66
     1
 10
0.0
 20
0.0
 30
0.0
  0
VERTEX
  5
276
330
275
100
AcDbEntity
  8
Layer 1
 62
   252
420
 10000536
370
    25
100
AcDbVertex
100
AcDb2dVertex
 10
107.2872343784429
 20
-72.4059640888566
 30
0.0
  0
VERTEX
  5
277
330
275
100
AcDbEntity
  8
Layer 1
 62
   252
420
 10000536
370
    25
100
AcDbVertex
100
AcDb2dVertex
 10
107.2799996731512
 20
-72.40355252042603
 30
0.0
  0
VERTEX
  5
278
330
275
100
AcDbEntity
  8
Layer 1
 62
   252
420
 10000536
370
    25
100
AcDbVertex
100
AcDb2dVertex
 10
107.2734539874111
 20
-72.40114095199546
 30
0.0
  0
VERTEX
  5
279
330
275
100
AcDbEntity
  8
Layer 1
 62
   252
420
 10000536
370
    25
100
AcDbVertex
100
AcDb2dVertex
 10
107.2669083016709
 20
-72.39855712867698
 30
0.0
  0
SEQEND
  5
27A
330
275
100
AcDbEntity
  8
Layer 1
370
    25
  0
POLYLINE
  5
27B
330
B5
100
AcDbEntity
  8
Layer 1
 62
   252
420
 10000536
370
    25
100
AcDb2dPolyline
 66
     1
 10
0.0
 20
0.0
 30
0.0
  0
VERTEX
  5
27C
330
27B
100
AcDbEntity
  8
Layer 1
 62
   252
420
 10000536
370
    25
100
AcDbVertex
100
AcDb2dVertex
 10
107.2848228100123
 20
-72.40079644221966
 30
0.0
  0
VERTEX
  5
27D
330
27B
100
AcDbEntity
  8
Layer 1
 62
   252
420
 10000536
370
    25
100
AcDbVertex
100
AcDb2dVertex
 10
107.1663114471384
 20
-72.35377085782348
 30
0.0
  0
VERTEX
  5
27E
330
27B
100
AcDbEntity
  8
Layer 1
 62
   252
420
 10000536
370
    25
100
AcDbVertex
100
AcDb2dVertex
 10
107.0405653789728
 20
-72.32793262463878
 30
0.0
  0
VERTEX
  5
27F
330
27B
100
AcDbEntity
  8
Layer 1
 62
   252
420
 10000536
370
    25
100
AcDbVertex
100
AcDb2dVertex
 10
106.9117187228251
 20
-72.32379850732922
 30
0.0
  0
VERTEX
  5
280
330
27B
100
AcDbEntity
  8
Layer 1
 62
   252
420
 10000536
370
    25
100
AcDbVertex
100
AcDb2dVertex
 10
106.7839055960047
 20
-72.34154076078272
 30
0.0
  0
VERTEX
  5
281
330
27B
100
AcDbEntity
  8
Layer 1
 62
   252
420
 10000536
370
    25
100
AcDbVertex
100
AcDb2dVertex
 10
106.6602265864939
 20
-72.38098713011138
 30
0.0
  0
VERTEX
  5
282
330
27B
100
AcDbEntity
  8
Layer 1
 62
   252
420
 10000536
370
    25
100
AcDbVertex
100
AcDb2dVertex
 10
106.5451603213779
 20
-72.44041506643622
 30
0.0
  0
VERTEX
  5
283
330
27B
100
AcDbEntity
  8
Layer 1
 62
   252
420
 10000536
370
    25
100
AcDbVertex
100
AcDb2dVertex
 10
106.4414628788633
 20
-72.51827427576616
 30
0.0
  0
VERTEX
  5
284
330
27B
100
AcDbEntity
  8
Layer 1
 62
   252
420
 10000536
370
    25
100
AcDbVertex
100
AcDb2dVertex
 10
106.3532683762595
 20
-72.61215318967061
 30
0.0
  0
VERTEX
  5
285
330
27B
100
AcDbEntity
  8
Layer 1
 62
   252
420
 10000536
370
    25
100
AcDbVertex
100
AcDb2dVertex
 10
106.2826438722213
 20
-72.71895122016743
 30
0.0
  0
VERTEX
  5
286
330
27B
100
AcDbEntity
  8
Layer 1
 62
   252
420
 10000536
370
    25
100
AcDbVertex
100
AcDb2dVertex
 10
106.2316564254034
 20
-72.83608454393811
 30
0.0
  0
SEQEND
  5
287
330
27B
100
AcDbEntity
  8
Layer 1
370
    25
  0
POLYLINE
  5
288
330
B5
100
AcDbEntity
  8
Layer 1
 62
   252
420
 10000536
370
    25
100
AcDb2dPolyline
 66
     1
 10
0.0
 20
0.0
 30
0.0
  0
VERTEX
  5
289
330
288
100
AcDbEntity
  8
Layer 1
 62
   252
420
 10000536
370
    25
100
AcDbVertex
100
AcDb2dVertex
 10
108.877491503518
 20
-73.47325537427314
 30
0.0
  0
VERTEX
  5
28A
330
288
100
AcDbEntity
  8
Layer 1
 62
   252
420
 10000536
370
    25
100
AcDbVertex
100
AcDb2dVertex
 10
108.1188809772149
 20
-72.96251963165531
 30
0.0
  0
VERTEX
  5
28B
330
288
100
AcDbEntity
  8
Layer 1
 62
   252
420
 10000536
370
    25
100
AcDbVertex
100
AcDb2dVertex
 10
107.2872343784429
 20
-72.4059640888566
 30
0.0
  0
SEQEND
  5
28C
330
288
100
AcDbEntity
  8
Layer 1
370
    25
  0
POLYLINE
  5
28D
330
B5
100
AcDbEntity
  8
Layer 1
 62
   252
420
 10000536
370
    25
100
AcDb2dPolyline
 66
     1
 10
0.0
 20
0.0
 30
0.0
  0
VERTEX
  5
28E
330
28D
100
AcDbEntity
  8
Layer 1
 62
   252
420
 10000536
370
    25
100
AcDbVertex
100
AcDb2dVertex
 10
107.70788081469
 20
-74.40102020049221
 30
0.0
  0
VERTEX
  5
28F
330
28D
100
AcDbEntity
  8
Layer 1
 62
   252
420
 10000536
370
    25
100
AcDbVertex
100
AcDb2dVertex
 10
107.0946534137728
 20
-73.98450788155465
 30
0.0
  0
VERTEX
  5
290
330
28D
100
AcDbEntity
  8
Layer 1
 62
   252
420
 10000536
370
    25
100
AcDbVertex
100
AcDb2dVertex
 10
106.4342281735716
 20
-73.53802321212281
 30
0.0
  0
SEQEND
  5
291
330
28D
100
AcDbEntity
  8
Layer 1
370
    25
  0
POLYLINE
  5
292
330
B5
100
AcDbEntity
  8
Layer 1
 62
   252
420
 10000536
370
    25
100
AcDb2dPolyline
 66
     1
 10
0.0
 20
0.0
 30
0.0
  0
VERTEX
  5
293
330
292
100
AcDbEntity
  8
Layer 1
 62
   252
420
 10000536
370
    25
100
AcDbVertex
100
AcDb2dVertex
 10
107.2669083016709
 20
-72.39855712867698
 30
0.0
  0
VERTEX
  5
294
330
292
100
AcDbEntity
  8
Layer 1
 62
   252
420
 10000536
370
    25
100
AcDbVertex
100
AcDb2dVertex
 10
107.1938722292021
 20
-72.39907389334068
 30
0.0
  0
VERTEX
  5
295
330
292
100
AcDbEntity
  8
Layer 1
 62
   252
420
 10000536
370
    25
100
AcDbVertex
100
AcDb2dVertex
 10
107.1125679221142
 20
-72.42026124455214
 30
0.0
  0
VERTEX
  5
296
330
292
100
AcDbEntity
  8
Layer 1
 62
   252
420
 10000536
370
    25
100
AcDbVertex
100
AcDb2dVertex
 10
107.025062439062
 20
-72.46160241764768
 30
0.0
  0
VERTEX
  5
297
330
292
100
AcDbEntity
  8
Layer 1
 62
   252
420
 10000536
370
    25
100
AcDbVertex
100
AcDb2dVertex
 10
106.9348008778034
 20
-72.52206388329991
 30
0.0
  0
VERTEX
  5
298
330
292
100
AcDbEntity
  8
Layer 1
 62
   252
420
 10000536
370
    25
100
AcDbVertex
100
AcDb2dVertex
 10
106.8438502969932
 20
-72.59957858285405
 30
0.0
  0
VERTEX
  5
299
330
292
100
AcDbEntity
  8
Layer 1
 62
   252
420
 10000536
370
    25
100
AcDbVertex
100
AcDb2dVertex
 10
106.7560003041652
 20
-72.69121818321582
 30
0.0
  0
VERTEX
  5
29A
330
292
100
AcDbEntity
  8
Layer 1
 62
   252
420
 10000536
370
    25
100
AcDbVertex
100
AcDb2dVertex
 10
106.6733179579741
 20
-72.79422660617888
 30
0.0
  0
VERTEX
  5
29B
330
292
100
AcDbEntity
  8
Layer 1
 62
   252
420
 10000536
370
    25
100
AcDbVertex
100
AcDb2dVertex
 10
106.599248356178
 20
-72.90584777353685
 30
0.0
  0
VERTEX
  5
29C
330
292
100
AcDbEntity
  8
Layer 1
 62
   252
420
 10000536
370
    25
100
AcDbVertex
100
AcDb2dVertex
 10
106.5355140476557
 20
-73.02143080331646
 30
0.0
  0
VERTEX
  5
29D
330
292
100
AcDbEntity
  8
Layer 1
 62
   252
420
 10000536
370
    25
100
AcDbVertex
100
AcDb2dVertex
 10
106.4845266008378
 20
-73.13804736242346
 30
0.0
  0
VERTEX
  5
29E
330
292
100
AcDbEntity
  8
Layer 1
 62
   252
420
 10000536
370
    25
100
AcDbVertex
100
AcDb2dVertex
 10
106.4480085646034
 20
-73.2515633335483
 30
0.0
  0
VERTEX
  5
29F
330
292
100
AcDbEntity
  8
Layer 1
 62
   252
420
 10000536
370
    25
100
AcDbVertex
100
AcDb2dVertex
 10
106.4269934682799
 20
-73.35818910915721
 30
0.0
  0
VERTEX
  5
2A0
330
292
100
AcDbEntity
  8
Layer 1
 62
   252
420
 10000536
370
    25
100
AcDbVertex
100
AcDb2dVertex
 10
106.4221703314187
 20
-73.45465184638014
 30
0.0
  0
VERTEX
  5
2A1
330
292
100
AcDbEntity
  8
Layer 1
 62
   252
420
 10000536
370
    25
100
AcDbVertex
100
AcDb2dVertex
 10
106.4342281735716
 20
-73.53802321212281
 30
0.0
  0
SEQEND
  5
2A2
330
292
100
AcDbEntity
  8
Layer 1
370
    25
  0
POLYLINE
  5
2A3
330
B5
100
AcDbEntity
  8
Layer 1
 62
   252
420
 10000536
370
    25
100
AcDb2dPolyline
 66
     1
 10
0.0
 20
0.0
 30
0.0
  0
VERTEX
  5
2A4
330
2A3
100
AcDbEntity
  8
Layer 1
 62
   252
420
 10000536
370
    25
100
AcDbVertex
100
AcDb2dVertex
 10
107.2848228100123
 20
-72.40079644221966
 30
0.0
  0
VERTEX
  5
2A5
330
2A3
100
AcDbEntity
  8
Layer 1
 62
   252
420
 10000536
370
    25
100
AcDbVertex
100
AcDb2dVertex
 10
170.876504285124
 20
-72.40079644221966
 30
0.0
  0
SEQEND
  5
2A6
330
2A3
100
AcDbEntity
  8
Layer 1
370
    25
  0
POLYLINE
  5
2A7
330
B5
100
AcDbEntity
  8
Layer 1
 62
   252
420
 10000536
370
    25
100
AcDb2dPolyline
 66
     1
 10
0.0
 20
0.0
 30
0.0
  0
VERTEX
  5
2A8
330
2A7
100
AcDbEntity
  8
Layer 1
 62
   252
420
 10000536
370
    25
100
AcDbVertex
100
AcDb2dVertex
 10
107.4629343640989
 20
-71.11370791984517
 30
0.0
  0
VERTEX
  5
2A9
330
2A7
100
AcDbEntity
  8
Layer 1
 62
   252
420
 10000536
370
    25
100
AcDbVertex
100
AcDb2dVertex
 10
171.6196118715163
 20
-71.11370791984517
 30
0.0
  0
SEQEND
  5
2AA
330
2A7
100
AcDbEntity
  8
Layer 1
370
    25
  0
POLYLINE
  5
2AB
330
B5
100
AcDbEntity
  8
Layer 1
 62
     7
420
 16777215
370
    25
100
AcDb2dPolyline
 66
     1
 10
0.0
 20
0.0
 30
0.0
  0
VERTEX
  5
2AC
330
2AB
100
AcDbEntity
  8
Layer 1
 62
     7
420
 16777215
370
    25
100
AcDbVertex
100
AcDb2dVertex
 10
58.24919612695253
 20
-67.44864067003763
 30
0.0
  0
VERTEX
  5
2AD
330
2AB
100
AcDbEntity
  8
Layer 1
 62
     7
420
 16777215
370
    25
100
AcDbVertex
100
AcDb2dVertex
 10
17.05598998011673
 20
-67.44864067003763
 30
0.0
  0
SEQEND
  5
2AE
330
2AB
100
AcDbEntity
  8
Layer 1
370
    25
  0
POLYLINE
  5
2AF
330
B5
100
AcDbEntity
  8
Layer 1
 62
   252
420
 10000536
370
    25
100
AcDb2dPolyline
 66
     1
 10
0.0
 20
0.0
 30
0.0
  0
VERTEX
  5
2B0
330
2AF
100
AcDbEntity
  8
Layer 1
 62
   252
420
 10000536
370
    25
100
AcDbVertex
100
AcDb2dVertex
 10
105.9419237039589
 20
-70.10016015945284
 30
0.0
  0
VERTEX
  5
2B1
330
2AF
100
AcDbEntity
  8
Layer 1
 62
   252
420
 10000536
370
    25
100
AcDbVertex
100
AcDb2dVertex
 10
106.0473436953525
 20
-70.1402955483331
 30
0.0
  0
VERTEX
  5
2B2
330
2AF
100
AcDbEntity
  8
Layer 1
 62
   252
420
 10000536
370
    25
100
AcDbVertex
100
AcDb2dVertex
 10
106.166544077778
 20
-70.16199966420825
 30
0.0
  0
VERTEX
  5
2B3
330
2AF
100
AcDbEntity
  8
Layer 1
 62
   252
420
 10000536
370
    25
100
AcDbVertex
100
AcDb2dVertex
 10
106.2950462241499
 20
-70.16475574241463
 30
0.0
  0
VERTEX
  5
2B4
330
2AF
100
AcDbEntity
  8
Layer 1
 62
   252
420
 10000536
370
    25
100
AcDbVertex
100
AcDb2dVertex
 10
106.4280269976073
 20
-70.14753025362482
 30
0.0
  0
VERTEX
  5
2B5
330
2AF
100
AcDbEntity
  8
Layer 1
 62
   252
420
 10000536
370
    25
100
AcDbVertex
100
AcDb2dVertex
 10
106.5613522808404
 20
-70.11204574671781
 30
0.0
  0
VERTEX
  5
2B6
330
2AF
100
AcDbEntity
  8
Layer 1
 62
   252
420
 10000536
370
    25
100
AcDbVertex
100
AcDb2dVertex
 10
106.6901989369881
 20
-70.05881898635731
 30
0.0
  0
VERTEX
  5
2B7
330
2AF
100
AcDbEntity
  8
Layer 1
 62
   252
420
 10000536
370
    25
100
AcDbVertex
100
AcDb2dVertex
 10
106.8097438291894
 20
-69.98991703119808
 30
0.0
  0
VERTEX
  5
2B8
330
2AF
100
AcDbEntity
  8
Layer 1
 62
   252
420
 10000536
370
    25
100
AcDbVertex
100
AcDb2dVertex
 10
106.9155083303588
 20
-69.90757919478278
 30
0.0
  0
VERTEX
  5
2B9
330
2AF
100
AcDbEntity
  8
Layer 1
 62
   252
420
 10000536
370
    25
100
AcDbVertex
100
AcDb2dVertex
 10
107.00473636229
 20
-69.81507831998151
 30
0.0
  0
VERTEX
  5
2BA
330
2AF
100
AcDbEntity
  8
Layer 1
 62
   252
420
 10000536
370
    25
100
AcDbVertex
100
AcDb2dVertex
 10
107.0736383174493
 20
-69.71534273988853
 30
0.0
  0
VERTEX
  5
2BB
330
2AF
100
AcDbEntity
  8
Layer 1
 62
   252
420
 10000536
370
    25
100
AcDbVertex
100
AcDb2dVertex
 10
107.1201471371818
 20
-69.61198980714967
 30
0.0
  0
SEQEND
  5
2BC
330
2AF
100
AcDbEntity
  8
Layer 1
370
    25
  0
POLYLINE
  5
2BD
330
B5
100
AcDbEntity
  8
Layer 1
 62
     7
420
 16777215
370
    25
100
AcDb2dPolyline
 66
     1
 10
0.0
 20
0.0
 30
0.0
  0
VERTEX
  5
2BE
330
2BD
100
AcDbEntity
  8
Layer 1
 62
     7
420
 16777215
370
    25
100
AcDbVertex
100
AcDb2dVertex
 10
171.6196118715163
 20
-197.182237235592
 30
0.0
  0
VERTEX
  5
2BF
330
2BD
100
AcDbEntity
  8
Layer 1
 62
     7
420
 16777215
370
    25
100
AcDbVertex
100
AcDb2dVertex
 10
171.6196118715163
 20
-212.5353153939483
 30
0.0
  0
SEQEND
  5
2C0
330
2BD
100
AcDbEntity
  8
Layer 1
370
    25
  0
POLYLINE
  5
2C1
330
B5
100
AcDbEntity
  8
Layer 1
 62
     7
420
 16777215
370
    25
100
AcDb2dPolyline
 66
     1
 10
0.0
 20
0.0
 30
0.0
  0
VERTEX
  5
2C2
330
2C1
100
AcDbEntity
  8
Layer 1
 62
     7
420
 16777215
370
    25
100
AcDbVertex
100
AcDb2dVertex
 10
172.8829292193608
 20
-170.7521362560615
 30
0.0
  0
VERTEX
  5
2C3
330
2C1
100
AcDbEntity
  8
Layer 1
 62
     7
420
 16777215
370
    25
100
AcDbVertex
100
AcDb2dVertex
 10
172.8829292193608
 20
-172.3392927931545
 30
0.0
  0
SEQEND
  5
2C4
330
2C1
100
AcDbEntity
  8
Layer 1
370
    25
  0
POLYLINE
  5
2C5
330
B5
100
AcDbEntity
  8
Layer 1
 62
     7
420
 16777215
370
    25
100
AcDb2dPolyline
 66
     1
 10
0.0
 20
0.0
 30
0.0
  0
VERTEX
  5
2C6
330
2C5
100
AcDbEntity
  8
Layer 1
 62
     7
420
 16777215
370
    25
100
AcDbVertex
100
AcDb2dVertex
 10
172.8829292193608
 20
-189.3291368963183
 30
0.0
  0
VERTEX
  5
2C7
330
2C5
100
AcDbEntity
  8
Layer 1
 62
     7
420
 16777215
370
    25
100
AcDbVertex
100
AcDb2dVertex
 10
172.8829292193608
 20
-190.9166379431871
 30
0.0
  0
SEQEND
  5
2C8
330
2C5
100
AcDbEntity
  8
Layer 1
370
    25
  0
POLYLINE
  5
2C9
330
B5
100
AcDbEntity
  8
Layer 1
 62
     7
420
 16777215
370
    25
100
AcDb2dPolyline
 66
     1
 10
0.0
 20
0.0
 30
0.0
  0
VERTEX
  5
2CA
330
2C9
100
AcDbEntity
  8
Layer 1
 62
     7
420
 16777215
370
    25
100
AcDbVertex
100
AcDb2dVertex
 10
172.7344455059927
 20
-36.30340664407289
 30
0.0
  0
VERTEX
  5
2CB
330
2C9
100
AcDbEntity
  8
Layer 1
 62
     7
420
 16777215
370
    25
100
AcDbVertex
100
AcDb2dVertex
 10
193.1001409021832
 20
-36.30340664407289
 30
0.0
  0
SEQEND
  5
2CC
330
2C9
100
AcDbEntity
  8
Layer 1
370
    25
  0
POLYLINE
  5
2CD
330
B5
100
AcDbEntity
  8
Layer 1
 62
     7
420
 16777215
370
    25
100
AcDb2dPolyline
 66
     1
 10
0.0
 20
0.0
 30
0.0
  0
VERTEX
  5
2CE
330
2CD
100
AcDbEntity
  8
Layer 1
 62
     7
420
 16777215
370
    25
100
AcDbVertex
100
AcDb2dVertex
 10
190.871162652782
 20
-36.30340664407289
 30
0.0
  0
VERTEX
  5
2CF
330
2CD
100
AcDbEntity
  8
Layer 1
 62
     7
420
 16777215
370
    25
100
AcDbVertex
100
AcDb2dVertex
 10
190.871162652782
 20
-113.956426873193
 30
0.0
  0
SEQEND
  5
2D0
330
2CD
100
AcDbEntity
  8
Layer 1
370
    25
  0
POLYLINE
  5
2D1
330
B5
100
AcDbEntity
  8
Layer 1
 62
     7
420
 16777215
370
    25
100
AcDb2dPolyline
 66
     1
 10
0.0
 20
0.0
 30
0.0
  0
VERTEX
  5
2D2
330
2D1
100
AcDbEntity
  8
Layer 1
 62
     7
420
 16777215
370
    25
100
AcDbVertex
100
AcDb2dVertex
 10
190.871162652782
 20
-196.0677481108914
 30
0.0
  0
VERTEX
  5
2D3
330
2D1
100
AcDbEntity
  8
Layer 1
 62
     7
420
 16777215
370
    25
100
AcDbVertex
100
AcDb2dVertex
 10
190.871162652782
 20
-118.4145556268834
 30
0.0
  0
SEQEND
  5
2D4
330
2D1
100
AcDbEntity
  8
Layer 1
370
    25
  0
SPLINE
  5
2D5
330
B5
100
AcDbEntity
  8
Layer 1
 62
     7
420
 16777215
370
    25
100
AcDbSpline
210
0.0
220
0.0
230
1.0
 70
     8
 71
     3
 72
     8
 73
     4
 74
     0
 42
0.0000000001
 43
0.0000000001
 40
0.0
 40
0.0
 40
0.0
 40
0.0
 40
1.0
 40
1.0
 40
1.0
 40
1.0
 10
105.1130331833933
 20
-160.1849879030657
 30
0.0
 10
104.8832451629372
 20
-160.3176241667472
 30
0.0
 10
104.741651645085
 20
-160.5629151271141
 30
0.0
 10
104.741651645085
 20
-160.8281876544771
 30
0.0
  0
SPLINE
  5
2D6
330
B5
100
AcDbEntity
  8
Layer 1
 62
     7
420
 16777215
370
    25
100
AcDbSpline
210
0.0
220
0.0
230
1.0
 70
     8
 71
     3
 72
     8
 73
     4
 74
     0
 42
0.0000000001
 43
0.0000000001
 40
0.0
 40
0.0
 40
0.0
 40
0.0
 40
1.0
 40
1.0
 40
1.0
 40
1.0
 10
103.7958000556366
 20
-170.3841998155112
 30
0.0
 10
103.6133821293526
 20
-170.4110715780233
 30
0.0
 10
103.4783342972405
 20
-170.5678235260106
 30
0.0
 10
103.4783342972405
 20
-170.7521362560615
 30
0.0
  0
SPLINE
  5
2D7
330
B5
100
AcDbEntity
  8
Layer 1
 62
     7
420
 16777215
370
    25
100
AcDbSpline
210
0.0
220
0.0
230
1.0
 70
     8
 71
     3
 72
     8
 73
     4
 74
     0
 42
0.0000000001
 43
0.0000000001
 40
0.0
 40
0.0
 40
0.0
 40
0.0
 40
1.0
 40
1.0
 40
1.0
 40
1.0
 10
103.4783342972405
 20
-172.3392927931545
 30
0.0
 10
103.4783342972405
 20
-172.5239500329812
 30
0.0
 10
103.6133821293526
 20
-172.6800129614169
 30
0.0
 10
103.7958000556366
 20
-172.7072292337048
 30
0.0
  0
SPLINE
  5
2D8
330
B5
100
AcDbEntity
  8
Layer 1
 62
     7
420
 16777215
370
    25
100
AcDbSpline
210
0.0
220
0.0
230
1.0
 70
     8
 71
     3
 72
     8
 73
     4
 74
     0
 42
0.0000000001
 43
0.0000000001
 40
0.0
 40
0.0
 40
0.0
 40
0.0
 40
1.0
 40
1.0
 40
1.0
 40
1.0
 10
103.7958000556366
 20
-188.9615449655438
 30
0.0
 10
103.6133821293526
 20
-188.9884167280559
 30
0.0
 10
103.4783342972405
 20
-189.1448241662674
 30
0.0
 10
103.4783342972405
 20
-189.3291368963183
 30
0.0
  0
SPLINE
  5
2D9
330
B5
100
AcDbEntity
  8
Layer 1
 62
     7
420
 16777215
370
    25
100
AcDbSpline
210
0.0
220
0.0
230
1.0
 70
     8
 71
     3
 72
     8
 73
     4
 74
     0
 42
0.0000000001
 43
0.0000000001
 40
0.0
 40
0.0
 40
0.0
 40
0.0
 40
1.0
 40
1.0
 40
1.0
 40
1.0
 10
103.4783342972405
 20
-190.9166379431871
 30
0.0
 10
103.4783342972405
 20
-191.100950673238
 30
0.0
 10
103.6133821293526
 20
-191.2573581114495
 30
0.0
 10
103.7958000556366
 20
-191.2842298739616
 30
0.0
  0
SPLINE
  5
2DA
330
B5
100
AcDbEntity
  8
Layer 1
 62
     7
420
 16777215
370
    25
100
AcDbSpline
210
0.0
220
0.0
230
1.0
 70
     8
 71
     3
 72
     8
 73
     4
 74
     0
 42
0.0000000001
 43
0.0000000001
 40
0.0
 40
0.0
 40
0.0
 40
0.0
 40
1.0
 40
1.0
 40
1.0
 40
1.0
 10
60.33365252540725
 20
-115.7082590831166
 30
0.0
 10
60.70916818102508
 20
-116.0837747387344
 30
0.0
 10
61.25642195987729
 20
-116.2301913934478
 30
0.0
 10
61.76922476114989
 20
-116.092904247793
 30
0.0
  0
SPLINE
  5
2DB
330
B5
100
AcDbEntity
  8
Layer 1
 62
     7
420
 16777215
370
    25
100
AcDbSpline
210
0.0
220
0.0
230
1.0
 70
     8
 71
     3
 72
     8
 73
     4
 74
     0
 42
0.0000000001
 43
0.0000000001
 40
0.0
 40
0.0
 40
0.0
 40
0.0
 40
1.0
 40
1.0
 40
1.0
 40
1.0
 10
104.741651645085
 20
-63.74240450202245
 30
0.0
 10
104.741651645085
 20
-64.0428170265167
 30
0.0
 10
104.5604395030162
 20
-64.31377396518039
 30
0.0
 10
104.2829368786124
 20
-64.42866797540842
 30
0.0
  0
SPLINE
  5
2DC
330
B5
100
AcDbEntity
  8
Layer 1
 62
     7
420
 16777215
370
    25
100
AcDbSpline
210
0.0
220
0.0
230
1.0
 70
     8
 71
     3
 72
     8
 73
     4
 74
     0
 42
0.0000000001
 43
0.0000000001
 40
0.0
 40
0.0
 40
0.0
 40
0.0
 40
1.0
 40
1.0
 40
1.0
 40
1.0
 10
104.2829368786124
 20
-64.42866797540842
 30
0.0
 10
104.0050897444328
 20
-64.54373424052433
 30
0.0
 10
103.685384672494
 20
-64.48034444177785
 30
0.0
 10
103.4731666506035
 20
-64.26778191011161
 30
0.0
  0
SPLINE
  5
2DD
330
B5
100
AcDbEntity
  8
Layer 1
 62
     7
420
 16777215
370
    25
100
AcDbSpline
210
0.0
220
0.0
230
1.0
 70
     8
 71
     3
 72
     8
 73
     4
 74
     0
 42
0.0000000001
 43
0.0000000001
 40
0.0
 40
0.0
 40
0.0
 40
0.0
 40
1.0
 40
1.0
 40
1.0
 40
1.0
 10
138.1804595034127
 20
-23.35879632830764
 30
0.0
 10
123.19669582471
 20
-23.35879632830764
 30
0.0
 10
108.3393672337244
 20
-26.09885483010246
 30
0.0
 10
94.34193504312606
 20
-31.44323498202843
 30
0.0
  0
SPLINE
  5
2DE
330
B5
100
AcDbEntity
  8
Layer 1
 62
     7
420
 16777215
370
    25
100
AcDbSpline
210
0.0
220
0.0
230
1.0
 70
     8
 71
     3
 72
     8
 73
     4
 74
     0
 42
0.0000000001
 43
0.0000000001
 40
0.0
 40
0.0
 40
0.0
 40
0.0
 40
1.0
 40
1.0
 40
1.0
 40
1.0
 10
87.95127870210713
 20
-34.09130937368568
 30
0.0
 10
74.28819324891897
 20
-40.20945848204985
 30
0.0
 10
61.8581082833053
 20
-48.77207670457572
 30
0.0
 10
51.27270091219221
 20
-59.35748407568881
 30
0.0
  0
SPLINE
  5
2DF
330
B5
100
AcDbEntity
  8
Layer 1
 62
     7
420
 16777215
370
    25
100
AcDbSpline
210
0.0
220
0.0
230
1.0
 70
     8
 71
     3
 72
     8
 73
     4
 74
     0
 42
0.0000000001
 43
0.0000000001
 40
0.0
 40
0.0
 40
0.0
 40
0.0
 40
1.0
 40
1.0
 40
1.0
 40
1.0
 10
172.8829292193608
 20
-170.7521362560615
 30
0.0
 10
172.8829292193608
 20
-170.5678235260106
 30
0.0
 10
172.747536877473
 20
-170.4110715780233
 30
0.0
 10
172.5652912060768
 20
-170.3841998155112
 30
0.0
  0
SPLINE
  5
2E0
330
B5
100
AcDbEntity
  8
Layer 1
 62
     7
420
 16777215
370
    25
100
AcDbSpline
210
0.0
220
0.0
230
1.0
 70
     8
 71
     3
 72
     8
 73
     4
 74
     0
 42
0.0000000001
 43
0.0000000001
 40
0.0
 40
0.0
 40
0.0
 40
0.0
 40
1.0
 40
1.0
 40
1.0
 40
1.0
 10
172.5652912060768
 20
-172.7072292337048
 30
0.0
 10
172.747536877473
 20
-172.6800129614169
 30
0.0
 10
172.8829292193608
 20
-172.5239500329812
 30
0.0
 10
172.8829292193608
 20
-172.3392927931545
 30
0.0
  0
SPLINE
  5
2E1
330
B5
100
AcDbEntity
  8
Layer 1
 62
     7
420
 16777215
370
    25
100
AcDbSpline
210
0.0
220
0.0
230
1.0
 70
     8
 71
     3
 72
     8
 73
     4
 74
     0
 42
0.0000000001
 43
0.0000000001
 40
0.0
 40
0.0
 40
0.0
 40
0.0
 40
1.0
 40
1.0
 40
1.0
 40
1.0
 10
172.8829292193608
 20
-189.3291368963183
 30
0.0
 10
172.8829292193608
 20
-189.1448241662674
 30
0.0
 10
172.747536877473
 20
-188.9884167280559
 30
0.0
 10
172.5652912060768
 20
-188.9615449655438
 30
0.0
  0
SPLINE
  5
2E2
330
B5
100
AcDbEntity
  8
Layer 1
 62
     7
420
 16777215
370
    25
100
AcDbSpline
210
0.0
220
0.0
230
1.0
 70
     8
 71
     3
 72
     8
 73
     4
 74
     0
 42
0.0000000001
 43
0.0000000001
 40
0.0
 40
0.0
 40
0.0
 40
0.0
 40
1.0
 40
1.0
 40
1.0
 40
1.0
 10
172.5652912060768
 20
-191.2842298739616
 30
0.0
 10
172.747536877473
 20
-191.2573581114495
 30
0.0
 10
172.8829292193608
 20
-191.100950673238
 30
0.0
 10
172.8829292193608
 20
-190.9166379431871
 30
0.0
  0
SPLINE
  5
2E3
330
B5
100
AcDbEntity
  8
Layer 1
 62
     7
420
 16777215
370
    25
100
AcDbSpline
210
0.0
220
0.0
230
1.0
 70
     8
 71
     3
 72
     8
 73
     4
 74
     0
 42
0.0000000001
 43
0.0000000001
 40
0.0
 40
0.0
 40
0.0
 40
0.0
 40
1.0
 40
1.0
 40
1.0
 40
1.0
 10
171.6196118715163
 20
-160.8281876544771
 30
0.0
 10
171.6196118715163
 20
-160.5629151271141
 30
0.0
 10
171.4780183536641
 20
-160.3176241667472
 30
0.0
 10
171.2478858234322
 20
-160.1849879030657
 30
0.0
  0
SPLINE
  5
2E4
330
B5
100
AcDbEntity
  8
Layer 1
 62
     7
420
 16777215
370
    25
100
AcDbSpline
210
0.0
220
0.0
230
1.0
 70
     8
 71
     3
 72
     8
 73
     4
 74
     0
 42
0.0000000001
 43
0.0000000001
 40
0.0
 40
0.0
 40
0.0
 40
0.0
 40
1.0
 40
1.0
 40
1.0
 40
1.0
 10
170.876504285124
 20
-72.40079644221966
 30
0.0
 10
171.3364248358118
 20
-72.13517940508082
 30
0.0
 10
171.6196118715163
 20
-71.64459748434707
 30
0.0
 10
171.6196118715163
 20
-71.11370791984517
 30
0.0
  0
POLYLINE
  5
2E5
330
B5
100
AcDbEntity
  8
Layer 1
 62
     7
420
 16777215
370
    25
100
AcDb2dPolyline
 66
     1
 10
0.0
 20
0.0
 30
0.0
  0
VERTEX
  5
2E6
330
2E5
100
AcDbEntity
  8
Layer 1
 62
     7
420
 16777215
370
    25
100
AcDbVertex
100
AcDb2dVertex
 10
104.741651645085
 20
-196.0677481108914
 30
0.0
  0
VERTEX
  5
2E7
330
2E5
100
AcDbEntity
  8
Layer 1
 62
     7
420
 16777215
370
    25
100
AcDbVertex
100
AcDb2dVertex
 10
171.6196118715163
 20
-196.0677481108914
 30
0.0
  0
SEQEND
  5
2E8
330
2E5
100
AcDbEntity
  8
Layer 1
370
    25
  0
POLYLINE
  5
2E9
330
B5
100
AcDbEntity
  8
Layer 1
 62
     7
420
 16777215
370
    25
100
AcDb2dPolyline
 66
     1
 10
0.0
 20
0.0
 30
0.0
  0
VERTEX
  5
2EA
330
2E9
100
AcDbEntity
  8
Layer 1
 62
     7
420
 16777215
370
    25
100
AcDbVertex
100
AcDb2dVertex
 10
83.00894145853529
 20
-43.80372897293127
 30
0.0
  0
VERTEX
  5
2EB
330
2E9
100
AcDbEntity
  8
Layer 1
 62
     7
420
 16777215
370
    25
100
AcDbVertex
100
AcDb2dVertex
 10
35.71894580943469
 20
-91.09355236714399
 30
0.0
  0
SEQEND
  5
2EC
330
2E9
100
AcDbEntity
  8
Layer 1
370
    25
  0
POLYLINE
  5
2ED
330
B5
100
AcDbEntity
  8
Layer 1
 62
     7
420
 16777215
370
    25
100
AcDb2dPolyline
 66
     1
 10
0.0
 20
0.0
 30
0.0
  0
VERTEX
  5
2EE
330
2ED
100
AcDbEntity
  8
Layer 1
 62
     7
420
 16777215
370
    25
100
AcDbVertex
100
AcDb2dVertex
 10
107.2531279106391
 20
-158.9495758470606
 30
0.0
  0
VERTEX
  5
2EF
330
2ED
100
AcDbEntity
  8
Layer 1
 62
     7
420
 16777215
370
    25
100
AcDbVertex
100
AcDb2dVertex
 10
107.6827316010569
 20
-158.8978993806912
 30
0.0
  0
SEQEND
  5
2F0
330
2ED
100
AcDbEntity
  8
Layer 1
370
    25
  0
POLYLINE
  5
2F1
330
B5
100
AcDbEntity
  8
Layer 1
 62
     7
420
 16777215
370
    25
100
AcDb2dPolyline
 66
     1
 10
0.0
 20
0.0
 30
0.0
  0
VERTEX
  5
2F2
330
2F1
100
AcDbEntity
  8
Layer 1
 62
     7
420
 16777215
370
    25
100
AcDbVertex
100
AcDb2dVertex
 10
107.6827316010569
 20
-158.8978993806912
 30
0.0
  0
VERTEX
  5
2F3
330
2F1
100
AcDbEntity
  8
Layer 1
 62
     7
420
 16777215
370
    25
100
AcDbVertex
100
AcDb2dVertex
 10
169.0185630642552
 20
-158.8978993806912
 30
0.0
  0
SEQEND
  5
2F4
330
2F1
100
AcDbEntity
  8
Layer 1
370
    25
  0
POLYLINE
  5
2F5
330
B5
100
AcDbEntity
  8
Layer 1
 62
     7
420
 16777215
370
    25
100
AcDb2dPolyline
 66
     1
 10
0.0
 20
0.0
 30
0.0
  0
VERTEX
  5
2F6
330
2F5
100
AcDbEntity
  8
Layer 1
 62
     7
420
 16777215
370
    25
100
AcDbVertex
100
AcDb2dVertex
 10
35.71894580943469
 20
-91.09355236714399
 30
0.0
  0
VERTEX
  5
2F7
330
2F5
100
AcDbEntity
  8
Layer 1
 62
     7
420
 16777215
370
    25
100
AcDbVertex
100
AcDb2dVertex
 10
60.33365252540725
 20
-115.7082590831166
 30
0.0
  0
SEQEND
  5
2F8
330
2F5
100
AcDbEntity
  8
Layer 1
370
    25
  0
POLYLINE
  5
2F9
330
B5
100
AcDbEntity
  8
Layer 1
 62
     7
420
 16777215
370
    25
100
AcDb2dPolyline
 66
     1
 10
0.0
 20
0.0
 30
0.0
  0
VERTEX
  5
2FA
330
2F9
100
AcDbEntity
  8
Layer 1
 62
     7
420
 16777215
370
    25
100
AcDbVertex
100
AcDb2dVertex
 10
63.84110655278805
 20
-115.5377267440975
 30
0.0
  0
VERTEX
  5
2FB
330
2F9
100
AcDbEntity
  8
Layer 1
 62
     7
420
 16777215
370
    25
100
AcDbVertex
100
AcDb2dVertex
 10
107.2531279106391
 20
-158.9495758470606
 30
0.0
  0
SEQEND
  5
2FC
330
2F9
100
AcDbEntity
  8
Layer 1
370
    25
  0
POLYLINE
  5
2FD
330
B5
100
AcDbEntity
  8
Layer 1
 62
     7
420
 16777215
370
    25
100
AcDb2dPolyline
 66
     1
 10
0.0
 20
0.0
 30
0.0
  0
VERTEX
  5
2FE
330
2FD
100
AcDbEntity
  8
Layer 1
 62
     7
420
 16777215
370
    25
100
AcDbVertex
100
AcDb2dVertex
 10
104.741651645085
 20
-36.30340664407289
 30
0.0
  0
VERTEX
  5
2FF
330
2FD
100
AcDbEntity
  8
Layer 1
 62
     7
420
 16777215
370
    25
100
AcDbVertex
100
AcDb2dVertex
 10
104.741651645085
 20
-63.74240450202245
 30
0.0
  0
SEQEND
  5
300
330
2FD
100
AcDbEntity
  8
Layer 1
370
    25
  0
POLYLINE
  5
301
330
B5
100
AcDbEntity
  8
Layer 1
 62
     7
420
 16777215
370
    25
100
AcDb2dPolyline
 66
     1
 10
0.0
 20
0.0
 30
0.0
  0
VERTEX
  5
302
330
301
100
AcDbEntity
  8
Layer 1
 62
     7
420
 16777215
370
    25
100
AcDbVertex
100
AcDb2dVertex
 10
104.741651645085
 20
-160.8281876544771
 30
0.0
  0
VERTEX
  5
303
330
301
100
AcDbEntity
  8
Layer 1
 62
     7
420
 16777215
370
    25
100
AcDbVertex
100
AcDb2dVertex
 10
104.741651645085
 20
-170.2453623758654
 30
0.0
  0
SEQEND
  5
304
330
301
100
AcDbEntity
  8
Layer 1
370
    25
  0
POLYLINE
  5
305
330
B5
100
AcDbEntity
  8
Layer 1
 62
     7
420
 16777215
370
    25
100
AcDb2dPolyline
 66
     1
 10
0.0
 20
0.0
 30
0.0
  0
VERTEX
  5
306
330
305
100
AcDbEntity
  8
Layer 1
 62
     7
420
 16777215
370
    25
100
AcDbVertex
100
AcDb2dVertex
 10
104.741651645085
 20
-172.8460666733507
 30
0.0
  0
VERTEX
  5
307
330
305
100
AcDbEntity
  8
Layer 1
 62
     7
420
 16777215
370
    25
100
AcDbVertex
100
AcDb2dVertex
 10
104.741651645085
 20
-188.8223630161222
 30
0.0
  0
SEQEND
  5
308
330
305
100
AcDbEntity
  8
Layer 1
370
    25
  0
POLYLINE
  5
309
330
B5
100
AcDbEntity
  8
Layer 1
 62
     7
420
 16777215
370
    25
100
AcDb2dPolyline
 66
     1
 10
0.0
 20
0.0
 30
0.0
  0
VERTEX
  5
30A
330
309
100
AcDbEntity
  8
Layer 1
 62
     7
420
 16777215
370
    25
100
AcDbVertex
100
AcDb2dVertex
 10
104.741651645085
 20
-191.4234118233832
 30
0.0
  0
VERTEX
  5
30B
330
309
100
AcDbEntity
  8
Layer 1
 62
     7
420
 16777215
370
    25
100
AcDbVertex
100
AcDb2dVertex
 10
104.741651645085
 20
-196.0677481108914
 30
0.0
  0
SEQEND
  5
30C
330
309
100
AcDbEntity
  8
Layer 1
370
    25
  0
POLYLINE
  5
30D
330
B5
100
AcDbEntity
  8
Layer 1
 62
     7
420
 16777215
370
    25
100
AcDb2dPolyline
 66
     1
 10
0.0
 20
0.0
 30
0.0
  0
VERTEX
  5
30E
330
30D
100
AcDbEntity
  8
Layer 1
 62
     7
420
 16777215
370
    25
100
AcDbVertex
100
AcDb2dVertex
 10
170.876504285124
 20
-72.40079644221966
 30
0.0
  0
VERTEX
  5
30F
330
30D
100
AcDbEntity
  8
Layer 1
 62
     7
420
 16777215
370
    25
100
AcDbVertex
100
AcDb2dVertex
 10
169.0185630642552
 20
-73.47325537427314
 30
0.0
  0
SEQEND
  5
310
330
30D
100
AcDbEntity
  8
Layer 1
370
    25
  0
POLYLINE
  5
311
330
B5
100
AcDbEntity
  8
Layer 1
 62
     7
420
 16777215
370
    25
100
AcDb2dPolyline
 66
     1
 10
0.0
 20
0.0
 30
0.0
  0
VERTEX
  5
312
330
311
100
AcDbEntity
  8
Layer 1
 62
     7
420
 16777215
370
    25
100
AcDbVertex
100
AcDb2dVertex
 10
169.0185630642552
 20
-158.8978993806912
 30
0.0
  0
VERTEX
  5
313
330
311
100
AcDbEntity
  8
Layer 1
 62
     7
420
 16777215
370
    25
100
AcDbVertex
100
AcDb2dVertex
 10
171.2478858234322
 20
-160.1849879030657
 30
0.0
  0
SEQEND
  5
314
330
311
100
AcDbEntity
  8
Layer 1
370
    25
  0
POLYLINE
  5
315
330
B5
100
AcDbEntity
  8
Layer 1
  6
AI-Linetype-1
 62
     7
420
 16777215
370
    25
100
AcDb2dPolyline
 66
     1
 10
0.0
 20
0.0
 30
0.0
  0
VERTEX
  5
316
330
315
100
AcDbEntity
  8
Layer 1
  6
AI-Linetype-1
 62
     7
420
 16777215
370
    25
100
AcDbVertex
100
AcDb2dVertex
 10
139.4940752785236
 20
-147.5788584420201
 30
0.0
  0
VERTEX
  5
317
330
315
100
AcDbEntity
  8
Layer 1
  6
AI-Linetype-1
 62
     7
420
 16777215
370
    25
100
AcDbVertex
100
AcDb2dVertex
 10
58.05024173143025
 20
-66.13502489492684
 30
0.0
  0
SEQEND
  5
318
330
315
100
AcDbEntity
  8
Layer 1
  6
AI-Linetype-1
370
    25
  0
POLYLINE
  5
31A
330
B5
100
AcDbEntity
  8
Layer 1
 62
     7
420
 16777215
370
    25
100
AcDb2dPolyline
 66
     1
 10
0.0
 20
0.0
 30
0.0
  0
VERTEX
  5
31B
330
31A
100
AcDbEntity
  8
Layer 1
 62
     7
420
 16777215
370
    25
100
AcDbVertex
100
AcDb2dVertex
 10
61.76922476114989
 20
-116.092904247793
 30
0.0
  0
VERTEX
  5
31C
330
31A
100
AcDbEntity
  8
Layer 1
 62
     7
420
 16777215
370
    25
100
AcDbVertex
100
AcDb2dVertex
 10
63.84110655278805
 20
-115.5377267440975
 30
0.0
  0
SEQEND
  5
31D
330
31A
100
AcDbEntity
  8
Layer 1
370
    25
  0
POLYLINE
  5
31E
330
B5
100
AcDbEntity
  8
Layer 1
  6
AI-Linetype-2
 62
     7
420
 16777215
370
    25
100
AcDb2dPolyline
 66
     1
 10
0.0
 20
0.0
 30
0.0
  0
VERTEX
  5
31F
330
31E
100
AcDbEntity
  8
Layer 1
  6
AI-Linetype-2
 62
     7
420
 16777215
370
    25
100
AcDbVertex
100
AcDb2dVertex
 10
138.1804595034127
 20
-197.9253448219843
 30
0.0
  0
VERTEX
  5
320
330
31E
100
AcDbEntity
  8
Layer 1
  6
AI-Linetype-2
 62
     7
420
 16777215
370
    25
100
AcDbVertex
100
AcDb2dVertex
 10
138.1804595034127
 20
-34.44546542320415
 30
0.0
  0
SEQEND
  5
321
330
31E
100
AcDbEntity
  8
Layer 1
  6
AI-Linetype-2
370
    25
  0
POLYLINE
  5
323
330
B5
100
AcDbEntity
  8
Layer 1
 62
     7
420
 16777215
370
    25
100
AcDb2dPolyline
 66
     1
 10
0.0
 20
0.0
 30
0.0
  0
VERTEX
  5
324
330
323
100
AcDbEntity
  8
Layer 1
 62
     7
420
 16777215
370
    25
100
AcDbVertex
100
AcDb2dVertex
 10
107.2531279106391
 20
-158.9495758470606
 30
0.0
  0
VERTEX
  5
325
330
323
100
AcDbEntity
  8
Layer 1
 62
     7
420
 16777215
370
    25
100
AcDbVertex
100
AcDb2dVertex
 10
105.1130331833933
 20
-160.1849879030657
 30
0.0
  0
SEQEND
  5
326
330
323
100
AcDbEntity
  8
Layer 1
370
    25
  0
POLYLINE
  5
327
330
B5
100
AcDbEntity
  8
Layer 1
 62
     7
420
 16777215
370
    25
100
AcDb2dPolyline
 66
     1
 10
0.0
 20
0.0
 30
0.0
  0
VERTEX
  5
328
330
327
100
AcDbEntity
  8
Layer 1
 62
     7
420
 16777215
370
    25
100
AcDbVertex
100
AcDb2dVertex
 10
83.00894145853529
 20
-43.80372897293127
 30
0.0
  0
VERTEX
  5
329
330
327
100
AcDbEntity
  8
Layer 1
 62
     7
420
 16777215
370
    25
100
AcDbVertex
100
AcDb2dVertex
 10
103.4731666506035
 20
-64.26778191011161
 30
0.0
  0
SEQEND
  5
32A
330
327
100
AcDbEntity
  8
Layer 1
370
    25
  0
POLYLINE
  5
32B
330
B5
100
AcDbEntity
  8
Layer 1
 62
     7
420
 16777215
370
    25
100
AcDb2dPolyline
 66
     1
 10
0.0
 20
0.0
 30
0.0
  0
VERTEX
  5
32C
330
32B
100
AcDbEntity
  8
Layer 1
 62
     7
420
 16777215
370
    25
100
AcDbVertex
100
AcDb2dVertex
 10
169.0185630642552
 20
-73.47325537427314
 30
0.0
  0
VERTEX
  5
32D
330
32B
100
AcDbEntity
  8
Layer 1
 62
     7
420
 16777215
370
    25
100
AcDbVertex
100
AcDb2dVertex
 10
169.0185630642552
 20
-158.8978993806912
 30
0.0
  0
SEQEND
  5
32E
330
32B
100
AcDbEntity
  8
Layer 1
370
    25
  0
POLYLINE
  5
32F
330
B5
100
AcDbEntity
  8
Layer 1
 62
     7
420
 16777215
370
    25
100
AcDb2dPolyline
 66
     1
 10
0.0
 20
0.0
 30
0.0
  0
VERTEX
  5
330
330
32F
100
AcDbEntity
  8
Layer 1
 62
     7
420
 16777215
370
    25
100
AcDbVertex
100
AcDb2dVertex
 10
171.6196118715163
 20
-36.30340664407289
 30
0.0
  0
VERTEX
  5
331
330
32F
100
AcDbEntity
  8
Layer 1
 62
     7
420
 16777215
370
    25
100
AcDbVertex
100
AcDb2dVertex
 10
171.6196118715163
 20
-71.11370791984517
 30
0.0
  0
SEQEND
  5
332
330
32F
100
AcDbEntity
  8
Layer 1
370
    25
  0
POLYLINE
  5
333
330
B5
100
AcDbEntity
  8
Layer 1
 62
     7
420
 16777215
370
    25
100
AcDb2dPolyline
 66
     1
 10
0.0
 20
0.0
 30
0.0
  0
VERTEX
  5
334
330
333
100
AcDbEntity
  8
Layer 1
 62
     7
420
 16777215
370
    25
100
AcDbVertex
100
AcDb2dVertex
 10
171.6196118715163
 20
-160.8281876544771
 30
0.0
  0
VERTEX
  5
335
330
333
100
AcDbEntity
  8
Layer 1
 62
     7
420
 16777215
370
    25
100
AcDbVertex
100
AcDb2dVertex
 10
171.6196118715163
 20
-170.2453623758654
 30
0.0
  0
SEQEND
  5
336
330
333
100
AcDbEntity
  8
Layer 1
370
    25
  0
POLYLINE
  5
337
330
B5
100
AcDbEntity
  8
Layer 1
 62
     7
420
 16777215
370
    25
100
AcDb2dPolyline
 66
     1
 10
0.0
 20
0.0
 30
0.0
  0
VERTEX
  5
338
330
337
100
AcDbEntity
  8
Layer 1
 62
     7
420
 16777215
370
    25
100
AcDbVertex
100
AcDb2dVertex
 10
171.6196118715163
 20
-172.8460666733507
 30
0.0
  0
VERTEX
  5
339
330
337
100
AcDbEntity
  8
Layer 1
 62
     7
420
 16777215
370
    25
100
AcDbVertex
100
AcDb2dVertex
 10
171.6196118715163
 20
-188.8223630161222
 30
0.0
  0
SEQEND
  5
33A
330
337
100
AcDbEntity
  8
Layer 1
370
    25
  0
POLYLINE
  5
33B
330
B5
100
AcDbEntity
  8
Layer 1
 62
     7
420
 16777215
370
    25
100
AcDb2dPolyline
 66
     1
 10
0.0
 20
0.0
 30
0.0
  0
VERTEX
  5
33C
330
33B
100
AcDbEntity
  8
Layer 1
 62
     7
420
 16777215
370
    25
100
AcDbVertex
100
AcDb2dVertex
 10
171.6196118715163
 20
-191.4234118233832
 30
0.0
  0
VERTEX
  5
33D
330
33B
100
AcDbEntity
  8
Layer 1
 62
     7
420
 16777215
370
    25
100
AcDbVertex
100
AcDb2dVertex
 10
171.6196118715163
 20
-196.0677481108914
 30
0.0
  0
SEQEND
  5
33E
330
33B
100
AcDbEntity
  8
Layer 1
370
    25
  0
POLYLINE
  5
33F
330
B5
100
AcDbEntity
  8
Layer 1
 62
     7
420
 16777215
370
    25
100
AcDb2dPolyline
 66
     1
 10
0.0
 20
0.0
 30
0.0
  0
VERTEX
  5
340
330
33F
100
AcDbEntity
  8
Layer 1
 62
     7
420
 16777215
370
    25
100
AcDbVertex
100
AcDb2dVertex
 10
104.741651645085
 20
-36.30340664407289
 30
0.0
  0
VERTEX
  5
341
330
33F
100
AcDbEntity
  8
Layer 1
 62
     7
420
 16777215
370
    25
100
AcDbVertex
100
AcDb2dVertex
 10
171.6196118715163
 20
-36.30340664407289
 30
0.0
  0
SEQEND
  5
342
330
33F
100
AcDbEntity
  8
Layer 1
370
    25
  0
POLYLINE
  5
343
330
B5
100
AcDbEntity
  8
Layer 1
370
     0
100
AcDb2dPolyline
 66
     1
 10
0.0
 20
0.0
 30
0.0
  0
VERTEX
  5
344
330
343
100
AcDbEntity
  8
Layer 1
370
     0
100
AcDbVertex
100
AcDb2dVertex
 10
-35.3399850560589
 20
-4.626421779166751
 30
0.0
  0
VERTEX
  5
345
330
343
100
AcDbEntity
  8
Layer 1
370
     0
100
AcDbVertex
100
AcDb2dVertex
 10
276.7574497587669
 20
-4.626421779166751
 30
0.0
  0
VERTEX
  5
346
330
343
100
AcDbEntity
  8
Layer 1
370
     0
100
AcDbVertex
100
AcDb2dVertex
 10
276.7574497587669
 20
-225.3238627812779
 30
0.0
  0
VERTEX
  5
347
330
343
100
AcDbEntity
  8
Layer 1
370
     0
100
AcDbVertex
100
AcDb2dVertex
 10
-35.3399850560589
 20
-225.3238627812779
 30
0.0
  0
VERTEX
  5
348
330
343
100
AcDbEntity
  8
Layer 1
370
     0
100
AcDbVertex
100
AcDb2dVertex
 10
-35.3399850560589
 20
-4.626421779166751
 30
0.0
  0
SEQEND
  5
349
330
343
100
AcDbEntity
  8
Layer 1
370
     0
  0
ENDBLK
  5
B8
330
B5
100
AcDbEntity
  8
0
100
AcDbBlockEnd
  0
ENDSEC
  0
SECTION
  2
ENTITIES
  0
INSERT
  5
3D
330
1F
100
AcDbEntity
  8
Layer 1
100
AcDbBlockReference
  2
block 2
 10
0.0
 20
0.0
 30
0.0
  0
MTEXT
  5
4C
330
1F
100
AcDbEntity
  8
Layer 1
 62
    18
420
    65793
100
AcDbMText
 10
133.9591812205823
 20
-260.1055697456591
 30
0.0
 40
3.920669683827083
 41
0.0
 71
     7
 72
     1
  1
\fArial|b0|i0|c0|p34;\W0.978972;104.80.45
 73
     1
 44
1.0
  0
MTEXT
  5
4D
330
1F
100
AcDbEntity
  8
Layer 1
 62
    18
420
    65793
100
AcDbMText
 10
195.9998796850596
 20
-280.3944394618471
 30
0.0
 40
2.63876917007248
 41
0.0
 71
     7
 72
     1
  1
\fCentury Gothic|b0|i0|c0|p34;\W0.990688;A4
 73
     1
 44
1.0
  0
MTEXT
  5
4E
330
1F
100
AcDbEntity
  8
Layer 1
 62
    18
420
    65793
100
AcDbMText
 10
164.0283389618477
 20
-289.6252343945296
 30
0.0
 40
1.360006220349461
 41
0.0
 71
     7
 72
     1
  1
\fCentury Gothic|b0|i0|c0|p34;\W0.968579;SHEET 1 OF 1
 73
     1
 44
1.0
  0
MTEXT
  5
4F
330
1F
100
AcDbEntity
  8
Layer 1
 62
    18
420
    65793
100
AcDbMText
 10
14.37983804173209
 20
-289.6252343945296
 30
0.0
 40
1.360007461723616
 41
0.0
 71
     7
 72
     1
  1
\fCentury Gothic|b0|i0|c0|p34;\W0.97601;SCALE:
 73
     1
 44
1.0
  0
MTEXT
  5
50
330
1F
100
AcDbEntity
  8
Layer 1
 62
    18
420
    65793
100
AcDbMText
 10
92.70413556899108
 20
-258.0150844261279
 30
0.0
 40
1.360002582392795
 41
0.0
 71
     7
 72
     1
  1
\fCentury Gothic|b0|i0|c0|p34;\W0.980594;CONTACT:
 73
     1
 44
1.0
  0
MTEXT
  5
51
330
1F
100
AcDbEntity
  8
Layer 1
 62
    18
420
    65793
100
AcDbMText
 10
12.30502791699966
 20
-279.6992187342904
 30
0.0
 40
1.401043046795339
 41
0.0
 71
     7
 72
     1
  1
\fArial|b0|i0|c0|p34;\W0.978962;Disclaimer: This information is intended solely as a guide for use fo Marley NZ products. Before using you should ensure that the product is suitable for use in the specific application. 
 73
     1
 44
1.0
  0
MTEXT
  5
52
330
1F
100
AcDbEntity
  8
Layer 1
 62
    18
420
    65793
100
AcDbMText
 10
12.30502791699966
 20
-282.1982926479158
 30
0.0
 40
1.401046053346698
 41
0.0
 71
     7
 72
     1
  1
\fArial|b0|i0|c0|p34;\W0.980854;Marley NZ makes no warranty regarding the use of this information with non-Marley NZ products. This drawing is the property of Marley NZ Ltd.
 73
     1
 44
1.0
  0
MTEXT
  5
53
330
1F
100
AcDbEntity
  8
Layer 1
 62
    18
420
    65793
100
AcDbMText
 10
87.19663003822562
 20
-263.391503987203
 30
0.0
 40
2.159002374990015
 41
0.0
 71
     7
 72
     1
  1
\fArial,Bold|b0|i0|c0|p34;\W0.984785;0800 MARLEY
 73
     1
 44
1.0
  0
MTEXT
  5
54
330
1F
100
AcDbEntity
  8
Layer 1
 62
    18
420
    65793
100
AcDbMText
 10
85.09804873896326
 20
-266.5665060809404
 30
0.0
 40
2.158997867676741
 41
0.0
 71
     7
 72
     1
  1
\fArial|b0|i0|c0|p34;\W0.979154;www.marley.co.nz
 73
     1
 44
1.0
  0
MTEXT
  5
55
330
1F
100
AcDbEntity
  8
Layer 1
 62
    18
420
    65793
100
AcDbMText
 10
122.1442184596527
 20
-259.3696968645585
 30
0.0
 40
1.360004643435278
 41
0.0
 71
     7
 72
     1
  1
\fCentury Gothic|b0|i0|c0|p34;\W0.979211;DWG NO.
 73
     1
 44
1.0
  0
MTEXT
  5
56
330
1F
100
AcDbEntity
  8
Layer 1
 62
    18
420
    65793
100
AcDbMText
 10
128.9875606460678
 20
-289.6748438022443
 30
0.0
 40
1.360000406379835
 41
0.0
 71
     7
 72
     1
  1
\fCentury Gothic|b0|i0|c0|p34;\W0.971081;DATE: 30/06/11
 73
     1
 44
1.0
  0
POLYLINE
  5
57
330
1F
100
AcDbEntity
  8
Layer 1
 62
     9
420
 12631999
370
    50
100
AcDb2dPolyline
 66
     1
 10
0.0
 20
0.0
 30
0.0
  0
VERTEX
  5
58
330
57
100
AcDbEntity
  8
Layer 1
 62
     9
420
 12631999
370
    50
100
AcDbVertex
100
AcDb2dVertex
 10
205.0697885524453
 20
-292.0099310625907
 30
0.0
  0
VERTEX
  5
59
330
57
100
AcDbEntity
  8
Layer 1
 62
     9
420
 12631999
370
    50
100
AcDbVertex
100
AcDb2dVertex
 10
205.0697885524453
 20
-4.990051847519608
 30
0.0
  0
SEQEND
  5
5A
330
57
100
AcDbEntity
  8
Layer 1
370
    50
  0
POLYLINE
  5
5B
330
1F
100
AcDbEntity
  8
Layer 1
 62
     9
420
 12631999
370
    50
100
AcDb2dPolyline
 66
     1
 10
0.0
 20
0.0
 30
0.0
  0
VERTEX
  5
5C
330
5B
100
AcDbEntity
  8
Layer 1
 62
     9
420
 12631999
370
    50
100
AcDbVertex
100
AcDb2dVertex
 10
205.0697885524453
 20
-283.5081188154928
 30
0.0
  0
VERTEX
  5
5D
330
5B
100
AcDbEntity
  8
Layer 1
 62
     9
420
 12631999
370
    50
100
AcDbVertex
100
AcDb2dVertex
 10
192.0524866739871
 20
-283.5081188154928
 30
0.0
  0
SEQEND
  5
5E
330
5B
100
AcDbEntity
  8
Layer 1
370
    50
  0
POLYLINE
  5
5F
330
1F
100
AcDbEntity
  8
Layer 1
 62
     9
420
 12631999
370
    50
100
AcDb2dPolyline
 66
     1
 10
0.0
 20
0.0
 30
0.0
  0
VERTEX
  5
60
330
5F
100
AcDbEntity
  8
Layer 1
 62
     9
420
 12631999
370
    50
100
AcDbVertex
100
AcDb2dVertex
 10
192.0524866739871
 20
-285.9775648883997
 30
0.0
  0
VERTEX
  5
61
330
5F
100
AcDbEntity
  8
Layer 1
 62
     9
420
 12631999
370
    50
100
AcDbVertex
100
AcDb2dVertex
 10
192.0524866739871
 20
-275.006306568395
 30
0.0
  0
SEQEND
  5
62
330
5F
100
AcDbEntity
  8
Layer 1
370
    50
  0
POLYLINE
  5
63
330
1F
100
AcDbEntity
  8
Layer 1
 62
     9
420
 12631999
370
    50
100
AcDb2dPolyline
 66
     1
 10
0.0
 20
0.0
 30
0.0
  0
VERTEX
  5
64
330
63
100
AcDbEntity
  8
Layer 1
 62
     9
420
 12631999
370
    50
100
AcDbVertex
100
AcDb2dVertex
 10
160.8667727493663
 20
-292.0099310625907
 30
0.0
  0
VERTEX
  5
65
330
63
100
AcDbEntity
  8
Layer 1
 62
     9
420
 12631999
370
    50
100
AcDbVertex
100
AcDb2dVertex
 10
160.8667727493663
 20
-285.9775648883997
 30
0.0
  0
SEQEND
  5
66
330
63
100
AcDbEntity
  8
Layer 1
370
    50
  0
POLYLINE
  5
67
330
1F
100
AcDbEntity
  8
Layer 1
 62
     9
420
 12631999
370
    50
100
AcDb2dPolyline
 66
     1
 10
0.0
 20
0.0
 30
0.0
  0
VERTEX
  5
68
330
67
100
AcDbEntity
  8
Layer 1
 62
     9
420
 12631999
370
    50
100
AcDbVertex
100
AcDb2dVertex
 10
116.8752859486261
 20
-253.8396259434784
 30
0.0
  0
VERTEX
  5
69
330
67
100
AcDbEntity
  8
Layer 1
 62
     9
420
 12631999
370
    50
100
AcDbVertex
100
AcDb2dVertex
 10
116.9107704555331
 20
-275.0414465655262
 30
0.0
  0
SEQEND
  5
6A
330
67
100
AcDbEntity
  8
Layer 1
370
    50
  0
POLYLINE
  5
6B
330
1F
100
AcDbEntity
  8
Layer 1
 62
     9
420
 12631999
370
    50
100
AcDb2dPolyline
 66
     1
 10
0.0
 20
0.0
 30
0.0
  0
VERTEX
  5
6C
330
6B
100
AcDbEntity
  8
Layer 1
 62
     9
420
 12631999
370
    50
100
AcDbVertex
100
AcDb2dVertex
 10
10.05417329683539
 20
-275.006306568395
 30
0.0
  0
VERTEX
  5
6D
330
6B
100
AcDbEntity
  8
Layer 1
 62
     9
420
 12631999
370
    50
100
AcDbVertex
100
AcDb2dVertex
 10
205.0697885524453
 20
-275.0765865626574
 30
0.0
  0
SEQEND
  5
6E
330
6B
100
AcDbEntity
  8
Layer 1
370
    50
  0
POLYLINE
  5
6F
330
1F
100
AcDbEntity
  8
Layer 1
 62
     9
420
 12631999
370
    50
100
AcDb2dPolyline
 66
     1
 10
0.0
 20
0.0
 30
0.0
  0
VERTEX
  5
70
330
6F
100
AcDbEntity
  8
Layer 1
 62
     9
420
 12631999
370
    50
100
AcDbVertex
100
AcDb2dVertex
 10
10.0894855488545
 20
-236.8360014492826
 30
0.0
  0
VERTEX
  5
71
330
6F
100
AcDbEntity
  8
Layer 1
 62
     9
420
 12631999
370
    50
100
AcDbVertex
100
AcDb2dVertex
 10
10.0894855488545
 20
-292.0809000764047
 30
0.0
  0
SEQEND
  5
72
330
6F
100
AcDbEntity
  8
Layer 1
370
    50
  0
POLYLINE
  5
73
330
1F
100
AcDbEntity
  8
Layer 1
 62
     9
420
 12631999
370
    50
100
AcDb2dPolyline
 66
     1
 10
0.0
 20
0.0
 30
0.0
  0
VERTEX
  5
74
330
73
100
AcDbEntity
  8
Layer 1
 62
     9
420
 12631999
370
    50
100
AcDbVertex
100
AcDb2dVertex
 10
79.72783035385258
 20
-275.0414465655262
 30
0.0
  0
VERTEX
  5
75
330
73
100
AcDbEntity
  8
Layer 1
 62
     9
420
 12631999
370
    50
100
AcDbVertex
100
AcDb2dVertex
 10
79.72783035385258
 20
-253.8396259434784
 30
0.0
  0
SEQEND
  5
76
330
73
100
AcDbEntity
  8
Layer 1
370
    50
  0
POLYLINE
  5
77
330
1F
100
AcDbEntity
  8
Layer 1
 62
     9
420
 12631999
370
    50
100
AcDb2dPolyline
 66
     1
 10
0.0
 20
0.0
 30
0.0
  0
VERTEX
  5
78
330
77
100
AcDbEntity
  8
Layer 1
 62
     9
420
 12631999
370
    50
100
AcDbVertex
100
AcDb2dVertex
 10
210.0441652051662
 20
-4.990051847519608
 30
0.0
  0
VERTEX
  5
79
330
77
100
AcDbEntity
  8
Layer 1
 62
     9
420
 12631999
370
    50
100
AcDbVertex
100
AcDb2dVertex
 10
210.0441652051662
 20
-0.0158474496866238
 30
0.0
  0
SEQEND
  5
7A
330
77
100
AcDbEntity
  8
Layer 1
370
    50
  0
POLYLINE
  5
7B
330
1F
100
AcDbEntity
  8
Layer 1
 62
     9
420
 12631999
370
    50
100
AcDb2dPolyline
 66
     1
 10
0.0
 20
0.0
 30
0.0
  0
VERTEX
  5
7C
330
7B
100
AcDbEntity
  8
Layer 1
 62
     9
420
 12631999
370
    50
100
AcDbVertex
100
AcDb2dVertex
 10
205.0697885524453
 20
-253.8396259434784
 30
0.0
  0
VERTEX
  5
7D
330
7B
100
AcDbEntity
  8
Layer 1
 62
     9
420
 12631999
370
    50
100
AcDbVertex
100
AcDb2dVertex
 10
10.0894855488545
 20
-253.8396259434784
 30
0.0
  0
SEQEND
  5
7E
330
7B
100
AcDbEntity
  8
Layer 1
370
    50
  0
POLYLINE
  5
7F
330
1F
100
AcDbEntity
  8
Layer 1
 62
     9
420
 12631999
370
    50
100
AcDb2dPolyline
 66
     1
 10
0.0
 20
0.0
 30
0.0
  0
VERTEX
  5
80
330
7F
100
AcDbEntity
  8
Layer 1
 62
     9
420
 12631999
370
    50
100
AcDbVertex
100
AcDb2dVertex
 10
10.05417329683539
 20
-285.9775648883997
 30
0.0
  0
VERTEX
  5
81
330
7F
100
AcDbEntity
  8
Layer 1
 62
     9
420
 12631999
370
    50
100
AcDbVertex
100
AcDb2dVertex
 10
205.0697885524453
 20
-285.9775648883997
 30
0.0
  0
SEQEND
  5
82
330
7F
100
AcDbEntity
  8
Layer 1
370
    50
  0
POLYLINE
  5
83
330
1F
100
AcDbEntity
  8
Layer 1
 62
     9
420
 12631999
370
    50
100
AcDb2dPolyline
 66
     1
 10
0.0
 20
0.0
 30
0.0
  0
VERTEX
  5
84
330
83
100
AcDbEntity
  8
Layer 1
 62
     9
420
 12631999
370
    50
100
AcDbVertex
100
AcDb2dVertex
 10
10.05417329683539
 20
-292.0099310625907
 30
0.0
  0
VERTEX
  5
85
330
83
100
AcDbEntity
  8
Layer 1
 62
     9
420
 12631999
370
    50
100
AcDbVertex
100
AcDb2dVertex
 10
10.05417329683539
 20
-4.990051847519608
 30
0.0
  0
SEQEND
  5
86
330
83
100
AcDbEntity
  8
Layer 1
370
    50
  0
POLYLINE
  5
87
330
1F
100
AcDbEntity
  8
Layer 1
 62
     9
420
 12631999
370
    50
100
AcDb2dPolyline
 66
     1
 10
0.0
 20
0.0
 30
0.0
  0
VERTEX
  5
88
330
87
100
AcDbEntity
  8
Layer 1
 62
     9
420
 12631999
370
    50
100
AcDbVertex
100
AcDb2dVertex
 10
205.0697885524453
 20
-292.0099310625907
 30
0.0
  0
VERTEX
  5
89
330
87
100
AcDbEntity
  8
Layer 1
 62
     9
420
 12631999
370
    50
100
AcDbVertex
100
AcDb2dVertex
 10
180.9751193430371
 20
-292.0099310625907
 30
0.0
  0
SEQEND
  5
8A
330
87
100
AcDbEntity
  8
Layer 1
370
    50
  0
POLYLINE
  5
8B
330
1F
100
AcDbEntity
  8
Layer 1
 62
     9
420
 12631999
370
    50
100
AcDb2dPolyline
 66
     1
 10
0.0
 20
0.0
 30
0.0
  0
VERTEX
  5
8C
330
8B
100
AcDbEntity
  8
Layer 1
 62
     9
420
 12631999
370
    50
100
AcDbVertex
100
AcDb2dVertex
 10
10.05417329683539
 20
-4.990051847519608
 30
0.0
  0
VERTEX
  5
8D
330
8B
100
AcDbEntity
  8
Layer 1
 62
     9
420
 12631999
370
    50
100
AcDbVertex
100
AcDb2dVertex
 10
205.0697885524453
 20
-4.990051847519608
 30
0.0
  0
SEQEND
  5
8E
330
8B
100
AcDbEntity
  8
Layer 1
370
    50
  0
POLYLINE
  5
8F
330
1F
100
AcDbEntity
  8
Layer 1
 62
     9
420
 12631999
370
    50
100
AcDb2dPolyline
 66
     1
 10
0.0
 20
0.0
 30
0.0
  0
VERTEX
  5
90
330
8F
100
AcDbEntity
  8
Layer 1
 62
     9
420
 12631999
370
    50
100
AcDbVertex
100
AcDb2dVertex
 10
205.0697885524453
 20
-262.1299091882374
 30
0.0
  0
VERTEX
  5
91
330
8F
100
AcDbEntity
  8
Layer 1
 62
     9
420
 12631999
370
    50
100
AcDbVertex
100
AcDb2dVertex
 10
116.9107704555331
 20
-262.1299091882374
 30
0.0
  0
SEQEND
  5
92
330
8F
100
AcDbEntity
  8
Layer 1
370
    50
  0
POLYLINE
  5
93
330
1F
100
AcDbEntity
  8
Layer 1
 62
     9
420
 12631999
370
    50
100
AcDb2dPolyline
 66
     1
 10
0.0
 20
0.0
 30
0.0
  0
VERTEX
  5
94
330
93
100
AcDbEntity
  8
Layer 1
 62
     9
420
 12631999
370
    50
100
AcDbVertex
100
AcDb2dVertex
 10
210.0441652051662
 20
-296.9846522250874
 30
0.0
  0
VERTEX
  5
95
330
93
100
AcDbEntity
  8
Layer 1
 62
     9
420
 12631999
370
    50
100
AcDbVertex
100
AcDb2dVertex
 10
210.0441652051662
 20
-0.0158474496866238
 30
0.0
  0
SEQEND
  5
96
330
93
100
AcDbEntity
  8
Layer 1
370
    50
  0
POLYLINE
  5
97
330
1F
100
AcDbEntity
  8
Layer 1
 62
     9
420
 12631999
370
    50
100
AcDb2dPolyline
 66
     1
 10
0.0
 20
0.0
 30
0.0
  0
VERTEX
  5
98
330
97
100
AcDbEntity
  8
Layer 1
 62
     9
420
 12631999
370
    50
100
AcDbVertex
100
AcDb2dVertex
 10
0.0706245040382146
 20
-0.0158474496866238
 30
0.0
  0
VERTEX
  5
99
330
97
100
AcDbEntity
  8
Layer 1
 62
     9
420
 12631999
370
    50
100
AcDbVertex
100
AcDb2dVertex
 10
210.0441652051662
 20
-0.0158474496866238
 30
0.0
  0
SEQEND
  5
9A
330
97
100
AcDbEntity
  8
Layer 1
370
    50
  0
POLYLINE
  5
9B
330
1F
100
AcDbEntity
  8
Layer 1
 62
     9
420
 12631999
370
    50
100
AcDb2dPolyline
 66
     1
 10
0.0
 20
0.0
 30
0.0
  0
VERTEX
  5
9C
330
9B
100
AcDbEntity
  8
Layer 1
 62
     9
420
 12631999
370
    50
100
AcDbVertex
100
AcDb2dVertex
 10
0.0706245040382146
 20
-296.9846522250874
 30
0.0
  0
VERTEX
  5
9D
330
9B
100
AcDbEntity
  8
Layer 1
 62
     9
420
 12631999
370
    50
100
AcDbVertex
100
AcDb2dVertex
 10
0.0706245040382146
 20
-0.0158474496866238
 30
0.0
  0
SEQEND
  5
9E
330
9B
100
AcDbEntity
  8
Layer 1
370
    50
  0
POLYLINE
  5
9F
330
1F
100
AcDbEntity
  8
Layer 1
 62
     9
420
 12631999
370
    50
100
AcDb2dPolyline
 66
     1
 10
0.0
 20
0.0
 30
0.0
  0
VERTEX
  5
A0
330
9F
100
AcDbEntity
  8
Layer 1
 62
     9
420
 12631999
370
    50
100
AcDbVertex
100
AcDb2dVertex
 10
0.0706245040382146
 20
-296.9846522250874
 30
0.0
  0
VERTEX
  5
A1
330
9F
100
AcDbEntity
  8
Layer 1
 62
     9
420
 12631999
370
    50
100
AcDbVertex
100
AcDb2dVertex
 10
210.0441652051662
 20
-296.9846522250874
 30
0.0
  0
SEQEND
  5
A2
330
9F
100
AcDbEntity
  8
Layer 1
370
    50
  0
POLYLINE
  5
A3
330
1F
100
AcDbEntity
  8
Layer 1
 62
     9
420
 12631999
370
    50
100
AcDb2dPolyline
 66
     1
 10
0.0
 20
0.0
 30
0.0
  0
VERTEX
  5
A4
330
A3
100
AcDbEntity
  8
Layer 1
 62
     9
420
 12631999
370
    50
100
AcDbVertex
100
AcDb2dVertex
 10
10.05417329683539
 20
-292.0099310625907
 30
0.0
  0
VERTEX
  5
A5
330
A3
100
AcDbEntity
  8
Layer 1
 62
     9
420
 12631999
370
    50
100
AcDbVertex
100
AcDb2dVertex
 10
205.0697885524453
 20
-292.0099310625907
 30
0.0
  0
SEQEND
  5
A6
330
A3
100
AcDbEntity
  8
Layer 1
370
    50
  0
INSERT
  5
A8
330
1F
100
AcDbEntity
  8
Layer 1
100
AcDbBlockReference
  2
block 3
 10
0.0
 20
0.0
 30
0.0
  0
SPLINE
  5
AC
330
1F
100
AcDbEntity
  8
Layer 1
 62
    18
420
    65793
370
    35
100
AcDbSpline
210
0.0
220
0.0
230
1.0
 70
    11
 71
     3
 72
    17
 73
    13
 74
     0
 42
0.0000000001
 43
0.0000000001
 40
0.0
 40
0.0
 40
0.0
 40
0.0
 40
1.0
 40
1.0
 40
1.0
 40
2.0
 40
2.0
 40
2.0
 40
3.0
 40
3.0
 40
3.0
 40
4.0
 40
4.0
 40
4.0
 40
4.0
 10
147.7161455876749
 20
-267.1149656440079
 30
0.0
 10
147.7161455876749
 20
-267.4181342467086
 30
0.0
 10
147.4505285505361
 20
-267.6634252070754
 30
0.0
 10
147.1228997537539
 20
-267.6634252070754
 30
0.0
 10
146.7956154667475
 20
-267.6634252070754
 30
0.0
 10
146.5299984296087
 20
-267.4181342467086
 30
0.0
 10
146.5299984296087
 20
-267.1149656440079
 30
0.0
 10
146.5299984296087
 20
-266.8117970413073
 30
0.0
 10
146.7956154667475
 20
-266.5665060809404
 30
0.0
 10
147.1228997537539
 20
-266.5665060809404
 30
0.0
 10
147.4505285505361
 20
-266.5665060809404
 30
0.0
 10
147.7161455876749
 20
-266.8117970413073
 30
0.0
 10
147.7161455876749
 20
-267.1149656440079
 30
0.0
  0
INSERT
  5
AE
330
1F
100
AcDbEntity
  8
Layer 1
100
AcDbBlockReference
  2
block 4
 10
0.0
 20
0.0
 30
0.0
  0
ENDSEC
  0
SECTION
  2
OBJECTS
  0
DICTIONARY
  5
C
330
0
100
AcDbDictionary
281
     1
  3
ACAD_GROUP
350
D
  3
ACAD_IMAGE_DICT
350
40
  3
ACAD_IMAGE_VARS
350
42
  3
ACAD_LAYOUT
350
1A
  3
ACAD_MLINESTYLE
350
17
  3
ACAD_PLOTSETTINGS
350
19
  3
ACAD_PLOTSTYLENAME
350
E
  3
ACAD_TABLESTYLE
350
351
  3
ACAD_VISUALSTYLE
350
2A
  0
IMAGEDEF_REACTOR
  5
44
330
43
100
AcDbRasterImageDefReactor
 90
        2
330
43
  0
DICTIONARY
  5
D
102
{ACAD_REACTORS
330
C
102
}
330
C
100
AcDbDictionary
281
     1
  0
DICTIONARY
  5
40
102
{ACAD_REACTORS
330
C
102
}
330
C
100
AcDbDictionary
281
     1
  3
D:\dwv\New files\PDF\104.80.45 plain junction_1.png
350
41
  0
RASTERVARIABLES
  5
42
102
{ACAD_REACTORS
330
C
102
}
330
C
100
AcDbRasterVariables
 90
        0
 70
     0
 71
     1
 72
     0
  0
DICTIONARY
  5
1A
102
{ACAD_REACTORS
330
C
102
}
330
C
100
AcDbDictionary
281
     1
  3
Layout1
350
1E
  3
Layout2
350
26
  3
Model
350
22
  0
DICTIONARY
  5
17
102
{ACAD_REACTORS
330
C
102
}
330
C
100
AcDbDictionary
281
     1
  3
Standard
350
18
  0
DICTIONARY
  5
19
102
{ACAD_REACTORS
330
C
102
}
330
C
100
AcDbDictionary
281
     1
  0
ACDBDICTIONARYWDFLT
  5
E
102
{ACAD_REACTORS
330
C
102
}
330
C
100
AcDbDictionary
281
     1
  3
Normal
350
F
100
AcDbDictionaryWithDefault
340
F
  0
DICTIONARY
  5
351
102
{ACAD_REACTORS
330
C
102
}
330
C
100
AcDbDictionary
281
     1
  0
DICTIONARY
  5
2A
102
{ACAD_REACTORS
330
C
102
}
330
C
100
AcDbDictionary
281
     1
  3
2dWireframe
350
2F
  3
3D Hidden
350
31
  3
3dWireframe
350
30
  3
Basic
350
32
  3
Brighten
350
36
  3
ColorChange
350
3A
  3
Conceptual
350
34
  3
Dim
350
35
  3
Facepattern
350
39
  3
Flat
350
2B
  3
FlatWithEdges
350
2C
  3
Gouraud
350
2D
  3
GouraudWithEdges
350
2E
  3
Linepattern
350
38
  3
Realistic
350
33
  3
Thicken
350
37
  0
IMAGEDEF
  5
41
102
{ACAD_REACTORS
330
40
330
44
102
}
330
40
100
AcDbRasterImageDef
 90
        0
  1
D:\dwv\New files\PDF\104.80.45 plain junction_1.png
 10
251.0
 20
40.0
 11
0.3527777777777777
 21
0.3527777777777777
280
     1
281
     5
  0
LAYOUT
  5
1E
102
{ACAD_REACTORS
330
1A
102
}
330
1A
100
AcDbPlotSettings
  1

  2
none_device
  4

  6

 40
0.0
 41
0.0
 42
0.0
 43
0.0
 44
0.0
 45
0.0
 46
0.0
 47
0.0
 48
0.0
 49
0.0
140
0.0
141
0.0
142
1.0
143
1.0
 70
   688
 72
     0
 73
     0
 74
     5
  7

 75
    16
 76
     0
 77
     2
 78
   300
147
1.0
148
0.0
149
0.0
100
AcDbLayout
  1
Layout1
 70
     1
 71
     1
 10
0.0
 20
0.0
 11
12.0
 21
9.0
 12
0.0
 22
0.0
 32
0.0
 14
1.000000000000000E+20
 24
1.000000000000000E+20
 34
1.000000000000000E+20
 15
-1.000000000000000E+20
 25
-1.000000000000000E+20
 35
-1.000000000000000E+20
146
0.0
 13
0.0
 23
0.0
 33
0.0
 16
1.0
 26
0.0
 36
0.0
 17
0.0
 27
1.0
 37
0.0
 76
     0
330
1B
  0
LAYOUT
  5
26
102
{ACAD_REACTORS
330
1A
102
}
330
1A
100
AcDbPlotSettings
  1

  2
none_device
  4

  6

 40
0.0
 41
0.0
 42
0.0
 43
0.0
 44
0.0
 45
0.0
 46
0.0
 47
0.0
 48
0.0
 49
0.0
140
0.0
141
0.0
142
1.0
143
1.0
 70
   688
 72
     0
 73
     0
 74
     5
  7

 75
    16
 76
     0
 77
     2
 78
   300
147
1.0
148
0.0
149
0.0
100
AcDbLayout
  1
Layout2
 70
     1
 71
     2
 10
0.0
 20
0.0
 11
0.0
 21
0.0
 12
0.0
 22
0.0
 32
0.0
 14
0.0
 24
0.0
 34
0.0
 15
0.0
 25
0.0
 35
0.0
146
0.0
 13
0.0
 23
0.0
 33
0.0
 16
1.0
 26
0.0
 36
0.0
 17
0.0
 27
1.0
 37
0.0
 76
     0
330
23
  0
LAYOUT
  5
22
102
{ACAD_REACTORS
330
1A
102
}
330
1A
100
AcDbPlotSettings
  1

  2
none_device
  4

  6

 40
0.0
 41
0.0
 42
0.0
 43
0.0
 44
0.0
 45
0.0
 46
0.0
 47
0.0
 48
0.0
 49
0.0
140
0.0
141
0.0
142
1.0
143
1.0
 70
  1712
 72
     0
 73
     0
 74
     0
  7

 75
     0
 76
     0
 77
     2
 78
   300
147
1.0
148
0.0
149
0.0
100
AcDbLayout
  1
Model
 70
     1
 71
     0
 10
0.0
 20
0.0
 11
12.0
 21
9.0
 12
0.0
 22
0.0
 32
0.0
 14
1.000000000000000E+20
 24
1.000000000000000E+20
 34
1.000000000000000E+20
 15
-1.000000000000000E+20
 25
-1.000000000000000E+20
 35
-1.000000000000000E+20
146
0.0
 13
0.0
 23
0.0
 33
0.0
 16
1.0
 26
0.0
 36
0.0
 17
0.0
 27
1.0
 37
0.0
 76
     0
330
1F
331
29
  0
MLINESTYLE
  5
18
102
{ACAD_REACTORS
330
17
102
}
330
17
100
AcDbMlineStyle
  2
Standard
 70
     0
  3

 62
   256
 51
90.0
 52
90.0
 71
     2
 49
0.5
 62
   256
  6
BYLAYER
 49
-0.5
 62
   256
  6
BYLAYER
  0
ACDBPLACEHOLDER
  5
F
102
{ACAD_REACTORS
330
E
102
}
330
E
  0
VISUALSTYLE
  5
2F
102
{ACAD_REACTORS
330
2A
102
}
330
2A
100
AcDbVisualStyle
  2
2dWireframe
 70
     4
 71
     0
 72
     2
 73
     0
 90
        0
 40
-0.6
 41
-30.0
 62
     5
 63
     7
421
 16777215
 74
     1
 91
        4
 64
     7
 65
   257
 75
     1
175
     1
 42
1.0
 92
        0
 66
   257
 43
1.0
 76
     1
 77
     6
 78
     2
 67
     7
 79
     5
170
     0
171
     0
290
     0
174
     0
 93
        1
 44
0.0
173
     0
291
     0
 45
0.0
1001
ACAD
1000
AcDbSavedByObjectVersion
1070
     0
  0
VISUALSTYLE
  5
31
102
{ACAD_REACTORS
330
2A
102
}
330
2A
100
AcDbVisualStyle
  2
3D Hidden
 70
     6
 71
     1
 72
     2
 73
     2
 90
        0
 40
-0.6
 41
-30.0
 62
     5
 63
     7
421
 16777215
 74
     2
 91
        2
 64
     7
 65
   257
 75
     2
175
     1
 42
40.0
 92
        0
 66
   257
 43
1.0
 76
     1
 77
     6
 78
     2
 67
     7
 79
     3
170
     0
171
     0
290
     0
174
     0
 93
        1
 44
0.0
173
     0
291
     0
 45
0.0
1001
ACAD
1000
AcDbSavedByObjectVersion
1070
     0
  0
VISUALSTYLE
  5
30
102
{ACAD_REACTORS
330
2A
102
}
330
2A
100
AcDbVisualStyle
  2
3dWireframe
 70
     5
 71
     0
 72
     2
 73
     0
 90
        0
 40
-0.6
 41
-30.0
 62
     5
 63
     7
421
 16777215
 74
     1
 91
        4
 64
     7
 65
   257
 75
     1
175
     1
 42
1.0
 92
        0
 66
   257
 43
1.0
 76
     1
 77
     6
 78
     2
 67
     7
 79
     5
170
     0
171
     0
290
     0
174
     0
 93
        1
 44
0.0
173
     0
291
     0
 45
0.0
1001
ACAD
1000
AcDbSavedByObjectVersion
1070
     0
  0
VISUALSTYLE
  5
32
102
{ACAD_REACTORS
330
2A
102
}
330
2A
100
AcDbVisualStyle
  2
Basic
 70
     7
 71
     1
 72
     0
 73
     1
 90
        0
 40
-0.6
 41
-30.0
 62
     5
 63
     7
421
 16777215
 74
     0
 91
        4
 64
     7
 65
   257
 75
     1
175
     1
 42
1.0
 92
        8
 66
     7
 43
1.0
 76
     1
 77
     6
 78
     2
 67
     7
 79
     5
170
     0
171
     0
290
     0
174
     0
 93
        1
 44
0.0
173
     0
291
     1
 45
0.0
1001
ACAD
1000
AcDbSavedByObjectVersion
1070
     0
  0
VISUALSTYLE
  5
36
102
{ACAD_REACTORS
330
2A
102
}
330
2A
100
AcDbVisualStyle
  2
Brighten
 70
    12
 71
     2
 72
     2
 73
     0
 90
        0
 40
-0.6
 41
-30.0
 62
     5
 63
     7
421
 16777215
 74
     1
 91
        4
 64
     7
 65
   257
 75
     1
175
     1
 42
1.0
 92
        8
 66
     7
 43
1.0
 76
     1
 77
     6
 78
     2
 67
     7
 79
     5
170
     0
171
     0
290
     0
174
     0
 93
        1
 44
50.0
173
     0
291
     1
 45
0.0
1001
ACAD
1000
AcDbSavedByObjectVersion
1070
     0
  0
VISUALSTYLE
  5
3A
102
{ACAD_REACTORS
330
2A
102
}
330
2A
100
AcDbVisualStyle
  2
ColorChange
 70
    16
 71
     2
 72
     2
 73
     3
 90
        0
 40
-0.6
 41
-30.0
 62
     5
 63
     8
421
  8421504
 74
     1
 91
        4
 64
     7
 65
   257
 75
     1
175
     1
 42
1.0
 92
        8
 66
     8
424
  8421504
 43
1.0
 76
     1
 77
     6
 78
     2
 67
     7
 79
     5
170
     0
171
     0
290
     0
174
     0
 93
        1
 44
0.0
173
     0
291
     1
 45
0.0
1001
ACAD
1000
AcDbSavedByObjectVersion
1070
     0
  0
VISUALSTYLE
  5
34
102
{ACAD_REACTORS
330
2A
102
}
330
2A
100
AcDbVisualStyle
  2
Conceptual
 70
     9
 71
     3
 72
     2
 73
     0
 90
        0
 40
-0.6
 41
-30.0
 62
     5
 63
     7
421
 16777215
 74
     2
 91
        2
 64
     7
 65
   257
 75
     1
175
     1
 42
40.0
 92
        8
 66
     7
 43
1.0
 76
     1
 77
     6
 78
     2
 67
     7
 79
     3
170
     0
171
     0
290
     0
174
     0
 93
        1
 44
0.0
173
     0
291
     0
 45
0.0
1001
ACAD
1000
AcDbSavedByObjectVersion
1070
     0
  0
VISUALSTYLE
  5
35
102
{ACAD_REACTORS
330
2A
102
}
330
2A
100
AcDbVisualStyle
  2
Dim
 70
    11
 71
     2
 72
     2
 73
     0
 90
        0
 40
-0.6
 41
-30.0
 62
     5
 63
     7
421
 16777215
 74
     1
 91
        4
 64
     7
 65
   257
 75
     1
175
     1
 42
1.0
 92
        8
 66
     7
 43
1.0
 76
     1
 77
     6
 78
     2
 67
     7
 79
     5
170
     0
171
     0
290
     0
174
     0
 93
        1
 44
-50.0
173
     0
291
     1
 45
0.0
1001
ACAD
1000
AcDbSavedByObjectVersion
1070
     0
  0
VISUALSTYLE
  5
39
102
{ACAD_REACTORS
330
2A
102
}
330
2A
100
AcDbVisualStyle
  2
Facepattern
 70
    15
 71
     2
 72
     2
 73
     0
 90
        0
 40
-0.6
 41
-30.0
 62
     5
 63
     7
421
 16777215
 74
     1
 91
        4
 64
     7
 65
   257
 75
     1
175
     1
 42
1.0
 92
        8
 66
     7
 43
1.0
 76
     1
 77
     6
 78
     2
 67
     7
 79
     5
170
     0
171
     0
290
     0
174
     0
 93
        1
 44
0.0
173
     0
291
     1
 45
0.0
1001
ACAD
1000
AcDbSavedByObjectVersion
1070
     0
  0
VISUALSTYLE
  5
2B
102
{ACAD_REACTORS
330
2A
102
}
330
2A
100
AcDbVisualStyle
  2
Flat
 70
     0
 71
     2
 72
     1
 73
     1
 90
        2
 40
-0.6
 41
30.0
 62
     5
 63
     7
421
 16777215
 74
     0
 91
        4
 64
     7
 65
   257
 75
     1
175
     1
 42
1.0
 92
        8
 66
     7
 43
1.0
 76
     1
 77
     6
 78
     2
 67
     7
 79
     5
170
     0
171
     0
290
     0
174
     0
 93
       13
 44
0.0
173
     0
291
     1
 45
0.0
1001
ACAD
1000
AcDbSavedByObjectVersion
1070
     0
  0
VISUALSTYLE
  5
2C
102
{ACAD_REACTORS
330
2A
102
}
330
2A
100
AcDbVisualStyle
  2
FlatWithEdges
 70
     1
 71
     2
 72
     1
 73
     1
 90
        2
 40
-0.6
 41
30.0
 62
     5
 63
     7
421
 16777215
 74
     1
 91
        4
 64
     7
 65
   257
 75
     1
175
     1
 42
1.0
 92
        0
 66
   257
 43
1.0
 76
     1
 77
     6
 78
     2
 67
     7
 79
     5
170
     0
171
     0
290
     0
174
     0
 93
       13
 44
0.0
173
     0
291
     1
 45
0.0
1001
ACAD
1000
AcDbSavedByObjectVersion
1070
     0
  0
VISUALSTYLE
  5
2D
102
{ACAD_REACTORS
330
2A
102
}
330
2A
100
AcDbVisualStyle
  2
Gouraud
 70
     2
 71
     2
 72
     2
 73
     1
 90
        2
 40
-0.6
 41
30.0
 62
     5
 63
     7
421
 16777215
 74
     0
 91
        4
 64
     7
 65
   257
 75
     1
175
     1
 42
1.0
 92
        0
 66
     7
 43
1.0
 76
     1
 77
     6
 78
     2
 67
     7
 79
     5
170
     0
171
     0
290
     0
174
     0
 93
       13
 44
0.0
173
     0
291
     1
 45
0.0
1001
ACAD
1000
AcDbSavedByObjectVersion
1070
     0
  0
VISUALSTYLE
  5
2E
102
{ACAD_REACTORS
330
2A
102
}
330
2A
100
AcDbVisualStyle
  2
GouraudWithEdges
 70
     3
 71
     2
 72
     2
 73
     1
 90
        2
 40
-0.6
 41
30.0
 62
     5
 63
     7
421
 16777215
 74
     1
 91
        4
 64
     7
 65
   257
 75
     1
175
     1
 42
1.0
 92
        0
 66
   257
 43
1.0
 76
     1
 77
     6
 78
     2
 67
     7
 79
     5
170
     0
171
     0
290
     0
174
     0
 93
       13
 44
0.0
173
     0
291
     1
 45
0.0
1001
ACAD
1000
AcDbSavedByObjectVersion
1070
     0
  0
VISUALSTYLE
  5
38
102
{ACAD_REACTORS
330
2A
102
}
330
2A
100
AcDbVisualStyle
  2
Linepattern
 70
    14
 71
     2
 72
     2
 73
     0
 90
        0
 40
-0.6
 41
-30.0
 62
     5
 63
     7
421
 16777215
 74
     1
 91
        4
 64
     7
 65
   257
 75
     7
175
     7
 42
1.0
 92
        8
 66
     7
 43
1.0
 76
     1
 77
     6
 78
     2
 67
     7
 79
     5
170
     0
171
     0
290
     0
174
     0
 93
        1
 44
0.0
173
     0
291
     1
 45
0.0
1001
ACAD
1000
AcDbSavedByObjectVersion
1070
     0
  0
VISUALSTYLE
  5
33
102
{ACAD_REACTORS
330
2A
102
}
330
2A
100
AcDbVisualStyle
  2
Realistic
 70
     8
 71
     2
 72
     2
 73
     0
 90
        0
 40
-0.6
 41
-30.0
 62
     5
 63
     7
421
 16777215
 74
     1
 91
        0
 64
     7
 65
   257
 75
     1
175
     1
 42
1.0
 92
        8
 66
     8
424
  7895160
 43
1.0
 76
     1
 77
     6
 78
     2
 67
     7
 79
     5
170
     0
171
     0
290
     0
174
     0
 93
       13
 44
0.0
173
     0
291
     0
 45
0.0
1001
ACAD
1000
AcDbSavedByObjectVersion
1070
     0
  0
VISUALSTYLE
  5
37
102
{ACAD_REACTORS
330
2A
102
}
330
2A
100
AcDbVisualStyle
  2
Thicken
 70
    13
 71
     2
 72
     2
 73
     0
 90
        0
 40
-0.6
 41
-30.0
 62
     5
 63
     7
421
 16777215
 74
     1
 91
        4
 64
     7
 65
   257
 75
     1
175
     1
 42
1.0
 92
       12
 66
     7
 43
1.0
 76
     1
 77
     6
 78
     2
 67
     7
 79
     5
170
     0
171
     0
290
     0
174
     0
 93
        1
 44
0.0
173
     0
291
     1
 45
0.0
1001
ACAD
1000
AcDbSavedByObjectVersion
1070
     0
  0
ENDSEC
  0
EOF
