  0
SECTION
  2
HEADER
  9
$ACADVER
  1
AC1018
  9
$ACADMAINTVER
 70
     0
  9
$DWGCODEPAGE
  3
ANSI_1252
  9
$INSBASE
 10
0.0
 20
0.0
 30
0.0
  9
$EXTMIN
 10
1.000000000000000E+20
 20
1.000000000000000E+20
 30
1.000000000000000E+20
  9
$EXTMAX
 10
-1.000000000000000E+20
 20
-1.000000000000000E+20
 30
-1.000000000000000E+20
  9
$LIMMIN
 10
0.0
 20
0.0
  9
$LIMMAX
 10
12.0
 20
9.0
  9
$ORTHOMODE
 70
     0
  9
$REGENMODE
 70
     1
  9
$FILLMODE
 70
     1
  9
$QTEXTMODE
 70
     0
  9
$MIRRTEXT
 70
     1
  9
$LTSCALE
 40
1.0
  9
$ATTMODE
 70
     1
  9
$TEXTSIZE
 40
0.2
  9
$TRACEWID
 40
0.05
  9
$TEXTSTYLE
  7
Standard
  9
$CLAYER
  8
0
  9
$CELTYPE
  6
ByLayer
  9
$CECOLOR
 62
   256
  9
$CELTSCALE
 40
1.0
  9
$DISPSILH
 70
     0
  9
$DIMSCALE
 40
1.0
  9
$DIMASZ
 40
0.18
  9
$DIMEXO
 40
0.0625
  9
$DIMDLI
 40
0.38
  9
$DIMRND
 40
0.0
  9
$DIMDLE
 40
0.0
  9
$DIMEXE
 40
0.18
  9
$DIMTP
 40
0.0
  9
$DIMTM
 40
0.0
  9
$DIMTXT
 40
0.18
  9
$DIMCEN
 40
0.09
  9
$DIMTSZ
 40
0.0
  9
$DIMTOL
 70
     0
  9
$DIMLIM
 70
     0
  9
$DIMTIH
 70
     1
  9
$DIMTOH
 70
     1
  9
$DIMSE1
 70
     0
  9
$DIMSE2
 70
     0
  9
$DIMTAD
 70
     0
  9
$DIMZIN
 70
     0
  9
$DIMBLK
  1

  9
$DIMASO
 70
     1
  9
$DIMSHO
 70
     1
  9
$DIMPOST
  1

  9
$DIMAPOST
  1

  9
$DIMALT
 70
     0
  9
$DIMALTD
 70
     2
  9
$DIMALTF
 40
25.4
  9
$DIMLFAC
 40
1.0
  9
$DIMTOFL
 70
     0
  9
$DIMTVP
 40
0.0
  9
$DIMTIX
 70
     0
  9
$DIMSOXD
 70
     0
  9
$DIMSAH
 70
     0
  9
$DIMBLK1
  1

  9
$DIMBLK2
  1

  9
$DIMSTYLE
  2
Standard
  9
$DIMCLRD
 70
     0
  9
$DIMCLRE
 70
     0
  9
$DIMCLRT
 70
     0
  9
$DIMTFAC
 40
1.0
  9
$DIMGAP
 40
0.09
  9
$DIMJUST
 70
     0
  9
$DIMSD1
 70
     0
  9
$DIMSD2
 70
     0
  9
$DIMTOLJ
 70
     1
  9
$DIMTZIN
 70
     0
  9
$DIMALTZ
 70
     0
  9
$DIMALTTZ
 70
     0
  9
$DIMUPT
 70
     0
  9
$DIMDEC
 70
     4
  9
$DIMTDEC
 70
     4
  9
$DIMALTU
 70
     2
  9
$DIMALTTD
 70
     2
  9
$DIMTXSTY
  7
Standard
  9
$DIMAUNIT
 70
     0
  9
$DIMADEC
 70
     0
  9
$DIMALTRND
 40
0.0
  9
$DIMAZIN
 70
     0
  9
$DIMDSEP
 70
    46
  9
$DIMATFIT
 70
     3
  9
$DIMFRAC
 70
     0
  9
$DIMLDRBLK
  1

  9
$DIMLUNIT
 70
     2
  9
$DIMLWD
 70
    -2
  9
$DIMLWE
 70
    -2
  9
$DIMTMOVE
 70
     0
  9
$LUNITS
 70
     2
  9
$LUPREC
 70
     4
  9
$SKETCHINC
 40
0.1
  9
$FILLETRAD
 40
0.5
  9
$AUNITS
 70
     0
  9
$AUPREC
 70
     0
  9
$MENU
  1
.
  9
$ELEVATION
 40
0.0
  9
$PELEVATION
 40
0.0
  9
$THICKNESS
 40
0.0
  9
$LIMCHECK
 70
     0
  9
$CHAMFERA
 40
0.5
  9
$CHAMFERB
 40
0.5
  9
$CHAMFERC
 40
1.0
  9
$CHAMFERD
 40
0.0
  9
$SKPOLY
 70
     0
  9
$TDCREATE
 40
2456576.589422373
  9
$TDUCREATE
 40
2456576.047755706
  9
$TDUPDATE
 40
2456576.589422384
  9
$TDUUPDATE
 40
2456576.047755718
  9
$TDINDWG
 40
0.0000000116
  9
$TDUSRTIMER
 40
0.0000000116
  9
$USRTIMER
 70
     1
  9
$ANGBASE
 50
0.0
  9
$ANGDIR
 70
     0
  9
$PDMODE
 70
     0
  9
$PDSIZE
 40
0.0
  9
$PLINEWID
 40
0.0
  9
$SPLFRAME
 70
     0
  9
$SPLINETYPE
 70
     6
  9
$SPLINESEGS
 70
     8
  9
$HANDSEED
  5
1B8
  9
$SURFTAB1
 70
     6
  9
$SURFTAB2
 70
     6
  9
$SURFTYPE
 70
     6
  9
$SURFU
 70
     6
  9
$SURFV
 70
     6
  9
$UCSBASE
  2

  9
$UCSNAME
  2

  9
$UCSORG
 10
0.0
 20
0.0
 30
0.0
  9
$UCSXDIR
 10
1.0
 20
0.0
 30
0.0
  9
$UCSYDIR
 10
0.0
 20
1.0
 30
0.0
  9
$UCSORTHOREF
  2

  9
$UCSORTHOVIEW
 70
     0
  9
$UCSORGTOP
 10
0.0
 20
0.0
 30
0.0
  9
$UCSORGBOTTOM
 10
0.0
 20
0.0
 30
0.0
  9
$UCSORGLEFT
 10
0.0
 20
0.0
 30
0.0
  9
$UCSORGRIGHT
 10
0.0
 20
0.0
 30
0.0
  9
$UCSORGFRONT
 10
0.0
 20
0.0
 30
0.0
  9
$UCSORGBACK
 10
0.0
 20
0.0
 30
0.0
  9
$PUCSBASE
  2

  9
$PUCSNAME
  2

  9
$PUCSORG
 10
0.0
 20
0.0
 30
0.0
  9
$PUCSXDIR
 10
1.0
 20
0.0
 30
0.0
  9
$PUCSYDIR
 10
0.0
 20
1.0
 30
0.0
  9
$PUCSORTHOREF
  2

  9
$PUCSORTHOVIEW
 70
     0
  9
$PUCSORGTOP
 10
0.0
 20
0.0
 30
0.0
  9
$PUCSORGBOTTOM
 10
0.0
 20
0.0
 30
0.0
  9
$PUCSORGLEFT
 10
0.0
 20
0.0
 30
0.0
  9
$PUCSORGRIGHT
 10
0.0
 20
0.0
 30
0.0
  9
$PUCSORGFRONT
 10
0.0
 20
0.0
 30
0.0
  9
$PUCSORGBACK
 10
0.0
 20
0.0
 30
0.0
  9
$USERI1
 70
     0
  9
$USERI2
 70
     0
  9
$USERI3
 70
     0
  9
$USERI4
 70
     0
  9
$USERI5
 70
     0
  9
$USERR1
 40
0.0
  9
$USERR2
 40
0.0
  9
$USERR3
 40
0.0
  9
$USERR4
 40
0.0
  9
$USERR5
 40
0.0
  9
$WORLDVIEW
 70
     1
  9
$SHADEDGE
 70
     3
  9
$SHADEDIF
 70
    70
  9
$TILEMODE
 70
     1
  9
$MAXACTVP
 70
    64
  9
$PINSBASE
 10
0.0
 20
0.0
 30
0.0
  9
$PLIMCHECK
 70
     0
  9
$PEXTMIN
 10
1.000000000000000E+20
 20
1.000000000000000E+20
 30
1.000000000000000E+20
  9
$PEXTMAX
 10
-1.000000000000000E+20
 20
-1.000000000000000E+20
 30
-1.000000000000000E+20
  9
$PLIMMIN
 10
0.0
 20
0.0
  9
$PLIMMAX
 10
12.0
 20
9.0
  9
$UNITMODE
 70
     0
  9
$VISRETAIN
 70
     1
  9
$PLINEGEN
 70
     0
  9
$PSLTSCALE
 70
     1
  9
$TREEDEPTH
 70
  3020
  9
$CMLSTYLE
  2
Standard
  9
$CMLJUST
 70
     0
  9
$CMLSCALE
 40
1.0
  9
$PROXYGRAPHICS
 70
     1
  9
$MEASUREMENT
 70
     0
  9
$CELWEIGHT
370
    -1
  9
$ENDCAPS
280
     0
  9
$JOINSTYLE
280
     0
  9
$LWDISPLAY
290
     1
  9
$INSUNITS
 70
     1
  9
$HYPERLINKBASE
  1

  9
$STYLESHEET
  1

  9
$XEDIT
290
     1
  9
$CEPSNTYPE
380
     0
  9
$PSTYLEMODE
290
     1
  9
$FINGERPRINTGUID
  2
{2C7370B4-A744-4FD7-BBA8-EAC2565A55C3}
  9
$VERSIONGUID
  2
{FAEB1C32-E019-11D5-929B-00C0DF256EC4}
  9
$EXTNAMES
290
     1
  9
$PSVPSCALE
 40
0.0
  9
$OLESTARTUP
290
     0
  9
$SORTENTS
280
   127
  9
$INDEXCTL
280
     0
  9
$HIDETEXT
280
     1
  9
$XCLIPFRAME
290
     0
  9
$HALOGAP
280
     0
  9
$OBSCOLOR
 70
   257
  9
$OBSLTYPE
280
     0
  9
$INTERSECTIONDISPLAY
280
     0
  9
$INTERSECTIONCOLOR
 70
   257
  9
$DIMASSOC
280
     2
  9
$PROJECTNAME
  1

  0
ENDSEC
  0
SECTION
  2
CLASSES
  0
CLASS
  1
ACDBDICTIONARYWDFLT
  2
AcDbDictionaryWithDefault
  3
ObjectDBX Classes
 90
        0
 91
        3
280
     0
281
     0
  0
CLASS
  1
VISUALSTYLE
  2
AcDbVisualStyle
  3
ObjectDBX Classes
 90
     4095
 91
        3
280
     0
281
     0
  0
CLASS
  1
IMAGEDEF
  2
AcDbRasterImageDef
  3
ISM
 90
        0
 91
        3
280
     0
281
     0
  0
CLASS
  1
RASTERVARIABLES
  2
AcDbRasterVariables
  3
ISM
 90
        0
 91
        3
280
     0
281
     0
  0
CLASS
  1
IMAGE
  2
AcDbRasterImage
  3
ISM
 90
      127
 91
        4
280
     0
281
     1
  0
CLASS
  1
IMAGEDEF_REACTOR
  2
AcDbRasterImageDefReactor
  3
ISM
 90
        1
 91
        3
280
     0
281
     0
  0
ENDSEC
  0
SECTION
  2
TABLES
  0
TABLE
  2
VPORT
  5
8
330
0
100
AcDbSymbolTable
 70
     1
  0
VPORT
  5
29
330
8
100
AcDbSymbolTableRecord
100
AcDbViewportTableRecord
  2
*Active
 70
     0
 10
0.0
 20
0.0
 11
1.0
 21
1.0
 12
0.0
 22
0.0
 13
0.0
 23
0.0
 14
0.5
 24
0.5
 15
0.5
 25
0.5
 16
0.0
 26
0.0
 36
1.0
 17
105.0008952513716
 27
-148.5000775824991
 37
0.0
 40
297.0001551649982
 41
0.7070763662937379
 42
50.0
 43
0.0
 44
0.0
 50
0.0
 51
0.0
 71
     0
 72
   100
 73
     1
 74
     3
 75
     0
 76
     0
 77
     0
 78
     0
281
     0
 65
     1
110
0.0
120
0.0
130
0.0
111
1.0
121
0.0
131
0.0
112
0.0
122
1.0
132
0.0
 79
     0
146
0.0
  0
ENDTAB
  0
TABLE
  2
LTYPE
  5
5
330
0
100
AcDbSymbolTable
 70
     3
  0
LTYPE
  5
14
330
5
100
AcDbSymbolTableRecord
100
AcDbLinetypeTableRecord
  2
ByBlock
 70
     0
  3

 72
    65
 73
     0
 40
0.0
  0
LTYPE
  5
15
330
5
100
AcDbSymbolTableRecord
100
AcDbLinetypeTableRecord
  2
ByLayer
 70
     0
  3

 72
    65
 73
     0
 40
0.0
  0
LTYPE
  5
16
330
5
100
AcDbSymbolTableRecord
100
AcDbLinetypeTableRecord
  2
Continuous
 70
     0
  3
Solid line
 72
    65
 73
     0
 40
0.0
  0
LTYPE
  5
193
330
5
100
AcDbSymbolTableRecord
100
AcDbLinetypeTableRecord
  2
AI-Linetype-1
 70
     0
  3
Adobe Illustrator Linetype No. 1
 72
    65
 73
     4
 40
9.575806333552654
 49
1.59596777833133
 74
     0
 49
-1.59596777833133
 74
     0
 49
4.787902998558663
 74
     0
 49
-1.59596777833133
 74
     0
  0
LTYPE
  5
1A8
330
5
100
AcDbSymbolTableRecord
100
AcDbLinetypeTableRecord
  2
AI-Linetype-2
 70
     0
  3
Adobe Illustrator Linetype No. 2
 72
    65
 73
     4
 40
9.575806333552654
 49
1.59596777833133
 74
     0
 49
-1.59596777833133
 74
     0
 49
4.787902998558663
 74
     0
 49
-1.59596777833133
 74
     0
  0
ENDTAB
  0
TABLE
  2
LAYER
  5
2
330
0
100
AcDbSymbolTable
 70
     2
  0
LAYER
  5
10
330
2
100
AcDbSymbolTableRecord
100
AcDbLayerTableRecord
  2
0
 70
     0
 62
     7
  6
Continuous
370
    -3
390
F
  0
LAYER
  5
3B
330
2
100
AcDbSymbolTableRecord
100
AcDbLayerTableRecord
  2
Layer 1
 70
     0
 62
     7
  6
Continuous
370
    -3
390
F
  0
ENDTAB
  0
TABLE
  2
STYLE
  5
3
330
0
100
AcDbSymbolTable
 70
     1
  0
STYLE
  5
11
330
3
100
AcDbSymbolTableRecord
100
AcDbTextStyleTableRecord
  2
Standard
 70
     0
 40
0.0
 41
1.0
 50
0.0
 71
     0
 42
0.2
  3
txt
  4

  0
ENDTAB
  0
TABLE
  2
VIEW
  5
6
330
0
100
AcDbSymbolTable
 70
     0
  0
ENDTAB
  0
TABLE
  2
UCS
  5
7
330
0
100
AcDbSymbolTable
 70
     0
  0
ENDTAB
  0
TABLE
  2
APPID
  5
9
330
0
100
AcDbSymbolTable
 70
     1
  0
APPID
  5
12
330
9
100
AcDbSymbolTableRecord
100
AcDbRegAppTableRecord
  2
ACAD
 70
     0
  0
ENDTAB
  0
TABLE
  2
DIMSTYLE
  5
A
330
0
100
AcDbSymbolTable
 70
     1
100
AcDbDimStyleTable
  0
DIMSTYLE
105
27
330
A
100
AcDbSymbolTableRecord
100
AcDbDimStyleTableRecord
  2
Standard
 70
     0
340
11
  0
ENDTAB
  0
TABLE
  2
BLOCK_RECORD
  5
1
330
0
100
AcDbSymbolTable
 70
     6
  0
BLOCK_RECORD
  5
1F
330
1
100
AcDbSymbolTableRecord
100
AcDbBlockTableRecord
  2
*Model_Space
340
22
  0
BLOCK_RECORD
  5
1B
330
1
100
AcDbSymbolTableRecord
100
AcDbBlockTableRecord
  2
*Paper_Space
340
1E
  0
BLOCK_RECORD
  5
23
330
1
100
AcDbSymbolTableRecord
100
AcDbBlockTableRecord
  2
*Paper_Space0
340
26
  0
BLOCK_RECORD
  5
3C
330
1
100
AcDbSymbolTableRecord
100
AcDbBlockTableRecord
  2
block 2
340
0
102
{BLKREFS
331
3D
102
}
  0
BLOCK_RECORD
  5
A7
330
1
100
AcDbSymbolTableRecord
100
AcDbBlockTableRecord
  2
block 3
340
0
102
{BLKREFS
331
A8
102
}
  0
BLOCK_RECORD
  5
AD
330
1
100
AcDbSymbolTableRecord
100
AcDbBlockTableRecord
  2
block 4
340
0
102
{BLKREFS
331
AE
102
}
  0
BLOCK_RECORD
  5
B1
330
1
100
AcDbSymbolTableRecord
100
AcDbBlockTableRecord
  2
block 5
340
0
102
{BLKREFS
331
B2
102
}
  0
BLOCK_RECORD
  5
B5
330
1
100
AcDbSymbolTableRecord
100
AcDbBlockTableRecord
  2
block 6
340
0
102
{BLKREFS
331
B6
102
}
  0
ENDTAB
  0
ENDSEC
  0
SECTION
  2
BLOCKS
  0
BLOCK
  5
20
330
1F
100
AcDbEntity
  8
0
100
AcDbBlockBegin
  2
*Model_Space
 70
     0
 71
     0
 10
0.0
 20
0.0
 30
0.0
  3
*Model_Space
  1

  0
ENDBLK
  5
21
330
1F
100
AcDbEntity
  8
0
100
AcDbBlockEnd
  0
BLOCK
  5
1C
330
1B
100
AcDbEntity
 67
     1
  8
0
100
AcDbBlockBegin
  2
*Paper_Space
 70
     0
 71
     0
 10
0.0
 20
0.0
 30
0.0
  3
*Paper_Space
  1

  0
ENDBLK
  5
1D
330
1B
100
AcDbEntity
 67
     1
  8
0
100
AcDbBlockEnd
  0
BLOCK
  5
24
330
23
100
AcDbEntity
  8
0
100
AcDbBlockBegin
  2
*Paper_Space0
 70
     0
 71
     0
 10
0.0
 20
0.0
 30
0.0
  3
*Paper_Space0
  1

  0
ENDBLK
  5
25
330
23
100
AcDbEntity
  8
0
100
AcDbBlockEnd
  0
BLOCK
  5
3E
330
3C
100
AcDbEntity
  8
0
100
AcDbBlockBegin
  2
block 2
 70
     0
 71
     0
 10
0.0
 20
0.0
 30
0.0
  3
block 2
  1

  0
IMAGE
  5
43
330
3C
100
AcDbEntity
  8
Layer 1
 92
        8
310
0800000000000000
100
AcDbRasterImage
 90
        0
 10
11.56967163085938
 20
-269.1219177246094
 30
0.0
 11
0.2650368375132283
 21
0.0
 31
0.0
 12
0.0
 22
0.2706950187683105
 32
0.0
 13
251.0
 23
40.0
340
41
 70
     3
280
     0
281
    50
282
    50
283
     0
360
44
 71
     1
 91
        2
 14
-0.5
 24
-0.5
 14
250.5
 24
39.5
  0
POLYLINE
  5
45
330
3C
100
AcDbEntity
  8
Layer 1
370
     0
100
AcDb2dPolyline
 66
     1
 10
0.0
 20
0.0
 30
0.0
  0
VERTEX
  5
46
330
45
100
AcDbEntity
  8
Layer 1
370
     0
100
AcDbVertex
100
AcDb2dVertex
 10
11.56967180056274
 20
-269.1220795977964
 30
0.0
  0
VERTEX
  5
47
330
45
100
AcDbEntity
  8
Layer 1
370
     0
100
AcDbVertex
100
AcDb2dVertex
 10
78.09382048725135
 20
-269.1220795977964
 30
0.0
  0
VERTEX
  5
48
330
45
100
AcDbEntity
  8
Layer 1
370
     0
100
AcDbVertex
100
AcDb2dVertex
 10
78.09382048725135
 20
-258.2941373445228
 30
0.0
  0
VERTEX
  5
49
330
45
100
AcDbEntity
  8
Layer 1
370
     0
100
AcDbVertex
100
AcDb2dVertex
 10
11.56967180056274
 20
-258.2941373445228
 30
0.0
  0
VERTEX
  5
4A
330
45
100
AcDbEntity
  8
Layer 1
370
     0
100
AcDbVertex
100
AcDb2dVertex
 10
11.56967180056274
 20
-269.1220795977964
 30
0.0
  0
SEQEND
  5
4B
330
45
100
AcDbEntity
  8
Layer 1
370
     0
  0
ENDBLK
  5
3F
330
3C
100
AcDbEntity
  8
0
100
AcDbBlockEnd
  0
BLOCK
  5
A9
330
A7
100
AcDbEntity
  8
0
100
AcDbBlockBegin
  2
block 3
 70
     0
 71
     0
 10
0.0
 20
0.0
 30
0.0
  3
block 3
  1

  0
MTEXT
  5
AB
330
A7
100
AcDbEntity
  8
Layer 1
 62
    18
420
    65793
100
AcDbMText
 10
118.2378221118999
 20
-271.4261609783212
 30
0.0
 40
4.653106244767444
 41
0.0
 71
     7
 72
     1
  1
\fArial,Bold|b0|i0|c0|p34;\W0.979537;80mm  88   M+F Bend
 73
     1
 44
1.0
  0
ENDBLK
  5
AA
330
A7
100
AcDbEntity
  8
0
100
AcDbBlockEnd
  0
BLOCK
  5
AF
330
AD
100
AcDbEntity
  8
0
100
AcDbBlockBegin
  2
block 4
 70
     0
 71
     0
 10
0.0
 20
0.0
 30
0.0
  3
block 4
  1

  0
INSERT
  5
B2
330
AD
100
AcDbEntity
  8
Layer 1
100
AcDbBlockReference
  2
block 5
 10
0.0
 20
0.0
 30
0.0
  0
POLYLINE
  5
1B0
330
AD
100
AcDbEntity
  8
Layer 1
370
     0
100
AcDb2dPolyline
 66
     1
 10
0.0
 20
0.0
 30
0.0
  0
VERTEX
  5
1B1
330
1B0
100
AcDbEntity
  8
Layer 1
370
     0
100
AcDbVertex
100
AcDb2dVertex
 10
14.37983804173209
 20
-46.95651018612992
 30
0.0
  0
VERTEX
  5
1B2
330
1B0
100
AcDbEntity
  8
Layer 1
370
     0
100
AcDbVertex
100
AcDb2dVertex
 10
200.9342932037881
 20
-46.95651018612992
 30
0.0
  0
VERTEX
  5
1B3
330
1B0
100
AcDbEntity
  8
Layer 1
370
     0
100
AcDbVertex
100
AcDb2dVertex
 10
200.9342932037881
 20
-245.9134895317359
 30
0.0
  0
VERTEX
  5
1B4
330
1B0
100
AcDbEntity
  8
Layer 1
370
     0
100
AcDbVertex
100
AcDb2dVertex
 10
14.37983804173209
 20
-245.9134895317359
 30
0.0
  0
VERTEX
  5
1B5
330
1B0
100
AcDbEntity
  8
Layer 1
370
     0
100
AcDbVertex
100
AcDb2dVertex
 10
14.37983804173209
 20
-46.95651018612992
 30
0.0
  0
SEQEND
  5
1B6
330
1B0
100
AcDbEntity
  8
Layer 1
370
     0
  0
ENDBLK
  5
B0
330
AD
100
AcDbEntity
  8
0
100
AcDbBlockEnd
  0
BLOCK
  5
B3
330
B1
100
AcDbEntity
  8
0
100
AcDbBlockBegin
  2
block 5
 70
     0
 71
     0
 10
0.0
 20
0.0
 30
0.0
  3
block 5
  1

  0
INSERT
  5
B6
330
B1
100
AcDbEntity
  8
Layer 1
100
AcDbBlockReference
  2
block 6
 10
0.0
 20
0.0
 30
0.0
  0
ENDBLK
  5
B4
330
B1
100
AcDbEntity
  8
0
100
AcDbBlockEnd
  0
BLOCK
  5
B7
330
B5
100
AcDbEntity
  8
0
100
AcDbBlockBegin
  2
block 6
 70
     0
 71
     0
 10
0.0
 20
0.0
 30
0.0
  3
block 6
  1

  0
MTEXT
  5
B9
330
B5
100
AcDbEntity
  8
Layer 1
 62
     7
420
 16777215
100
AcDbMText
 10
108.306294295248
 20
-230.6269017601083
 30
0.0
 40
2.458928848865124
 41
0.0
 71
     7
 72
     1
  1
\fHelvetica|b0|i0|c0|p34;\W1;147
 73
     1
 44
1.0
  0
POLYLINE
  5
BA
330
B5
100
AcDbEntity
  8
Layer 1
370
     0
100
AcDb2dPolyline
 66
     1
 10
0.0
 20
0.0
 30
0.0
  0
VERTEX
  5
BB
330
BA
100
AcDbEntity
  8
Layer 1
370
     0
100
AcDbVertex
100
AcDb2dVertex
 10
42.6146534817708
 20
-229.2361157952191
 30
0.0
  0
VERTEX
  5
BC
330
BA
100
AcDbEntity
  8
Layer 1
370
     0
100
AcDbVertex
100
AcDb2dVertex
 10
45.39622541154907
 20
-228.5408950676625
 30
0.0
  0
VERTEX
  5
BD
330
BA
100
AcDbEntity
  8
Layer 1
370
     0
100
AcDbVertex
100
AcDb2dVertex
 10
45.39622541154907
 20
-229.9316810325516
 30
0.0
  0
VERTEX
  5
BE
330
BA
100
AcDbEntity
  8
Layer 1
370
     0
100
AcDbVertex
100
AcDb2dVertex
 10
42.6146534817708
 20
-229.2361157952191
 30
0.0
  0
SEQEND
  5
BF
330
BA
100
AcDbEntity
  8
Layer 1
370
     0
  0
HATCH
  5
C0
330
B5
100
AcDbEntity
  8
Layer 1
 62
     7
420
 16777215
100
AcDbHatch
 10
0.0
 20
0.0
 30
0.0
210
0.0
220
0.0
230
1.0
  2
SOLID
 70
     1
 71
     0
 91
        1
 92
        1
 93
        3
 72
     1
 10
42.6146534817708
 20
-229.2361157952191
 11
45.39622541154907
 21
-228.5408950676625
 72
     1
 10
45.39622541154907
 20
-228.5408950676625
 11
45.39622541154907
 21
-229.9316810325516
 72
     1
 10
45.39622541154907
 20
-229.9316810325516
 11
42.6146534817708
 21
-229.2361157952191
 97
        0
 75
     2
 76
     1
 98
        0
  0
POLYLINE
  5
C1
330
B5
100
AcDbEntity
  8
Layer 1
370
     0
100
AcDb2dPolyline
 66
     1
 10
0.0
 20
0.0
 30
0.0
  0
VERTEX
  5
C2
330
C1
100
AcDbEntity
  8
Layer 1
370
     0
100
AcDbVertex
100
AcDb2dVertex
 10
179.0048679352588
 20
-229.2361157952191
 30
0.0
  0
VERTEX
  5
C3
330
C1
100
AcDbEntity
  8
Layer 1
370
     0
100
AcDbVertex
100
AcDb2dVertex
 10
176.2236405152563
 20
-229.9316810325516
 30
0.0
  0
VERTEX
  5
C4
330
C1
100
AcDbEntity
  8
Layer 1
370
     0
100
AcDbVertex
100
AcDb2dVertex
 10
176.2236405152563
 20
-228.5408950676625
 30
0.0
  0
VERTEX
  5
C5
330
C1
100
AcDbEntity
  8
Layer 1
370
     0
100
AcDbVertex
100
AcDb2dVertex
 10
179.0048679352588
 20
-229.2361157952191
 30
0.0
  0
SEQEND
  5
C6
330
C1
100
AcDbEntity
  8
Layer 1
370
     0
  0
HATCH
  5
C7
330
B5
100
AcDbEntity
  8
Layer 1
 62
     7
420
 16777215
100
AcDbHatch
 10
0.0
 20
0.0
 30
0.0
210
0.0
220
0.0
230
1.0
  2
SOLID
 70
     1
 71
     0
 91
        1
 92
        1
 93
        3
 72
     1
 10
179.0048679352588
 20
-229.2361157952191
 11
176.2236405152563
 21
-229.9316810325516
 72
     1
 10
176.2236405152563
 20
-229.9316810325516
 11
176.2236405152563
 21
-228.5408950676625
 72
     1
 10
176.2236405152563
 20
-228.5408950676625
 11
179.0048679352588
 21
-229.2361157952191
 97
        0
 75
     2
 76
     1
 98
        0
  0
MTEXT
  5
C8
330
B5
100
AcDbEntity
  8
Layer 1
 62
     7
420
 16777215
100
AcDbMText
 10
82.20623368093021
 20
-215.4309200595151
 30
0.0
 40
2.458928848865124
 41
0.0
 71
     7
 72
     1
  1
\fHelvetica|b0|i0|c0|p34;\W1;89
 73
     1
 44
1.0
  0
POLYLINE
  5
C9
330
B5
100
AcDbEntity
  8
Layer 1
370
     0
100
AcDb2dPolyline
 66
     1
 10
0.0
 20
0.0
 30
0.0
  0
VERTEX
  5
CA
330
C9
100
AcDbEntity
  8
Layer 1
370
     0
100
AcDbVertex
100
AcDb2dVertex
 10
125.1355968428908
 20
-214.0404786044018
 30
0.0
  0
VERTEX
  5
CB
330
C9
100
AcDbEntity
  8
Layer 1
370
     0
100
AcDbVertex
100
AcDb2dVertex
 10
122.3540249131126
 20
-214.7360438417342
 30
0.0
  0
VERTEX
  5
CC
330
C9
100
AcDbEntity
  8
Layer 1
370
     0
100
AcDbVertex
100
AcDb2dVertex
 10
122.3540249131126
 20
-213.3452578768451
 30
0.0
  0
VERTEX
  5
CD
330
C9
100
AcDbEntity
  8
Layer 1
370
     0
100
AcDbVertex
100
AcDb2dVertex
 10
125.1355968428908
 20
-214.0404786044018
 30
0.0
  0
SEQEND
  5
CE
330
C9
100
AcDbEntity
  8
Layer 1
370
     0
  0
HATCH
  5
CF
330
B5
100
AcDbEntity
  8
Layer 1
 62
     7
420
 16777215
100
AcDbHatch
 10
0.0
 20
0.0
 30
0.0
210
0.0
220
0.0
230
1.0
  2
SOLID
 70
     1
 71
     0
 91
        1
 92
        1
 93
        3
 72
     1
 10
125.1355968428908
 20
-214.0404786044018
 11
122.3540249131126
 21
-214.7360438417342
 72
     1
 10
122.3540249131126
 20
-214.7360438417342
 11
122.3540249131126
 21
-213.3452578768451
 72
     1
 10
122.3540249131126
 20
-213.3452578768451
 11
125.1355968428908
 21
-214.0404786044018
 97
        0
 75
     2
 76
     1
 98
        0
  0
POLYLINE
  5
D0
330
B5
100
AcDbEntity
  8
Layer 1
370
     0
100
AcDb2dPolyline
 66
     1
 10
0.0
 20
0.0
 30
0.0
  0
VERTEX
  5
D1
330
D0
100
AcDbEntity
  8
Layer 1
370
     0
100
AcDbVertex
100
AcDb2dVertex
 10
42.6146534817708
 20
-214.0404786044018
 30
0.0
  0
VERTEX
  5
D2
330
D0
100
AcDbEntity
  8
Layer 1
370
     0
100
AcDbVertex
100
AcDb2dVertex
 10
45.39622541154907
 20
-213.3452578768451
 30
0.0
  0
VERTEX
  5
D3
330
D0
100
AcDbEntity
  8
Layer 1
370
     0
100
AcDbVertex
100
AcDb2dVertex
 10
45.39622541154907
 20
-214.7360438417342
 30
0.0
  0
VERTEX
  5
D4
330
D0
100
AcDbEntity
  8
Layer 1
370
     0
100
AcDbVertex
100
AcDb2dVertex
 10
42.6146534817708
 20
-214.0404786044018
 30
0.0
  0
SEQEND
  5
D5
330
D0
100
AcDbEntity
  8
Layer 1
370
     0
  0
HATCH
  5
D6
330
B5
100
AcDbEntity
  8
Layer 1
 62
     7
420
 16777215
100
AcDbHatch
 10
0.0
 20
0.0
 30
0.0
210
0.0
220
0.0
230
1.0
  2
SOLID
 70
     1
 71
     0
 91
        1
 92
        1
 93
        3
 72
     1
 10
42.6146534817708
 20
-214.0404786044018
 11
45.39622541154907
 21
-213.3452578768451
 72
     1
 10
45.39622541154907
 20
-213.3452578768451
 11
45.39622541154907
 21
-214.7360438417342
 72
     1
 10
45.39622541154907
 20
-214.7360438417342
 11
42.6146534817708
 21
-214.0404786044018
 97
        0
 75
     2
 76
     1
 98
        0
  0
MTEXT
  5
D7
330
B5
100
AcDbEntity
  8
Layer 1
 62
     7
420
 16777215
100
AcDbMText
 10
20.27112746273447
 20
-129.888109199999
 30
0.0
 40
2.458928848865124
 41
0.0
 71
     7
 72
     1
  1
\fHelvetica|b0|i0|c0|p34;\W1;143
 73
     1
 44
1.0
  0
POLYLINE
  5
D8
330
B5
100
AcDbEntity
  8
Layer 1
370
     0
100
AcDb2dPolyline
 66
     1
 10
0.0
 20
0.0
 30
0.0
  0
VERTEX
  5
D9
330
D8
100
AcDbEntity
  8
Layer 1
370
     0
100
AcDbVertex
100
AcDb2dVertex
 10
22.77485225833313
 20
-194.6704164602621
 30
0.0
  0
VERTEX
  5
DA
330
D8
100
AcDbEntity
  8
Layer 1
370
     0
100
AcDbVertex
100
AcDb2dVertex
 10
22.07945927588856
 20
-191.8885000207081
 30
0.0
  0
VERTEX
  5
DB
330
D8
100
AcDbEntity
  8
Layer 1
370
     0
100
AcDbVertex
100
AcDb2dVertex
 10
23.4702452407777
 20
-191.8885000207081
 30
0.0
  0
VERTEX
  5
DC
330
D8
100
AcDbEntity
  8
Layer 1
370
     0
100
AcDbVertex
100
AcDb2dVertex
 10
22.77485225833313
 20
-194.6704164602621
 30
0.0
  0
SEQEND
  5
DD
330
D8
100
AcDbEntity
  8
Layer 1
370
     0
  0
HATCH
  5
DE
330
B5
100
AcDbEntity
  8
Layer 1
 62
     7
420
 16777215
100
AcDbHatch
 10
0.0
 20
0.0
 30
0.0
210
0.0
220
0.0
230
1.0
  2
SOLID
 70
     1
 71
     0
 91
        1
 92
        1
 93
        3
 72
     1
 10
22.77485225833313
 20
-194.6704164602621
 11
22.07945927588856
 21
-191.8885000207081
 72
     1
 10
22.07945927588856
 20
-191.8885000207081
 11
23.4702452407777
 21
-191.8885000207081
 72
     1
 10
23.4702452407777
 20
-191.8885000207081
 11
22.77485225833313
 21
-194.6704164602621
 97
        0
 75
     2
 76
     1
 98
        0
  0
POLYLINE
  5
DF
330
B5
100
AcDbEntity
  8
Layer 1
370
     0
100
AcDb2dPolyline
 66
     1
 10
0.0
 20
0.0
 30
0.0
  0
VERTEX
  5
E0
330
DF
100
AcDbEntity
  8
Layer 1
370
     0
100
AcDbVertex
100
AcDb2dVertex
 10
22.77485225833313
 20
-62.32423000995752
 30
0.0
  0
VERTEX
  5
E1
330
DF
100
AcDbEntity
  8
Layer 1
370
     0
100
AcDbVertex
100
AcDb2dVertex
 10
23.4702452407777
 20
-65.10580193973578
 30
0.0
  0
VERTEX
  5
E2
330
DF
100
AcDbEntity
  8
Layer 1
370
     0
100
AcDbVertex
100
AcDb2dVertex
 10
22.07945927588856
 20
-65.10580193973578
 30
0.0
  0
VERTEX
  5
E3
330
DF
100
AcDbEntity
  8
Layer 1
370
     0
100
AcDbVertex
100
AcDb2dVertex
 10
22.77485225833313
 20
-62.32423000995752
 30
0.0
  0
SEQEND
  5
E4
330
DF
100
AcDbEntity
  8
Layer 1
370
     0
  0
HATCH
  5
E5
330
B5
100
AcDbEntity
  8
Layer 1
 62
     7
420
 16777215
100
AcDbHatch
 10
0.0
 20
0.0
 30
0.0
210
0.0
220
0.0
230
1.0
  2
SOLID
 70
     1
 71
     0
 91
        1
 92
        1
 93
        3
 72
     1
 10
22.77485225833313
 20
-62.32423000995752
 11
23.4702452407777
 21
-65.10580193973578
 72
     1
 10
23.4702452407777
 20
-65.10580193973578
 11
22.07945927588856
 21
-65.10580193973578
 72
     1
 10
22.07945927588856
 20
-65.10580193973578
 11
22.77485225833313
 21
-62.32423000995752
 97
        0
 75
     2
 76
     1
 98
        0
  0
POLYLINE
  5
E6
330
B5
100
AcDbEntity
  8
Layer 1
 62
     7
420
 16777215
370
     9
100
AcDb2dPolyline
 66
     1
 10
0.0
 20
0.0
 30
0.0
  0
VERTEX
  5
E7
330
E6
100
AcDbEntity
  8
Layer 1
 62
     7
420
 16777215
370
     9
100
AcDbVertex
100
AcDb2dVertex
 10
99.73471881855139
 20
-86.08282993307661
 30
0.0
  0
VERTEX
  5
E8
330
E6
100
AcDbEntity
  8
Layer 1
 62
     7
420
 16777215
370
     9
100
AcDbVertex
100
AcDb2dVertex
 10
99.73471881855139
 20
-86.54636783641035
 30
0.0
  0
VERTEX
  5
E9
330
E6
100
AcDbEntity
  8
Layer 1
 62
     7
420
 16777215
370
     9
100
AcDbVertex
100
AcDb2dVertex
 10
99.96657389766222
 20
-86.77822291552117
 30
0.0
  0
VERTEX
  5
EA
330
E6
100
AcDbEntity
  8
Layer 1
 62
     7
420
 16777215
370
     9
100
AcDbVertex
100
AcDb2dVertex
 10
100.430111800996
 20
-86.77822291552117
 30
0.0
  0
VERTEX
  5
EB
330
E6
100
AcDbEntity
  8
Layer 1
 62
     7
420
 16777215
370
     9
100
AcDbVertex
100
AcDb2dVertex
 10
100.6619668801068
 20
-86.54636783641035
 30
0.0
  0
VERTEX
  5
EC
330
E6
100
AcDbEntity
  8
Layer 1
 62
     7
420
 16777215
370
     9
100
AcDbVertex
100
AcDb2dVertex
 10
100.6619668801068
 20
-86.08282993307661
 30
0.0
  0
VERTEX
  5
ED
330
E6
100
AcDbEntity
  8
Layer 1
 62
     7
420
 16777215
370
     9
100
AcDbVertex
100
AcDb2dVertex
 10
100.430111800996
 20
-85.85097485396578
 30
0.0
  0
VERTEX
  5
EE
330
E6
100
AcDbEntity
  8
Layer 1
 62
     7
420
 16777215
370
     9
100
AcDbVertex
100
AcDb2dVertex
 10
99.96657389766222
 20
-85.85097485396578
 30
0.0
  0
VERTEX
  5
EF
330
E6
100
AcDbEntity
  8
Layer 1
 62
     7
420
 16777215
370
     9
100
AcDbVertex
100
AcDb2dVertex
 10
99.73471881855139
 20
-86.08282993307661
 30
0.0
  0
SEQEND
  5
F0
330
E6
100
AcDbEntity
  8
Layer 1
370
     9
  0
MTEXT
  5
F1
330
B5
100
AcDbEntity
  8
Layer 1
 62
     7
420
 16777215
100
AcDbMText
 10
96.39676360086231
 20
-89.32776751130072
 30
0.0
 40
2.458928848865124
 41
0.0
 71
     7
 72
     1
  1
\fHelvetica|b0|i0|c0|p34;\W1;88
 73
     1
 44
1.0
  0
POLYLINE
  5
F2
330
B5
100
AcDbEntity
  8
Layer 1
370
     0
100
AcDb2dPolyline
 66
     1
 10
0.0
 20
0.0
 30
0.0
  0
VERTEX
  5
F3
330
F2
100
AcDbEntity
  8
Layer 1
370
     0
100
AcDbVertex
100
AcDb2dVertex
 10
105.6246302004506
 20
-102.8325507225105
 30
0.0
  0
VERTEX
  5
F4
330
F2
100
AcDbEntity
  8
Layer 1
370
     0
100
AcDbVertex
100
AcDb2dVertex
 10
104.6586247891181
 20
-100.1333166291476
 30
0.0
  0
VERTEX
  5
F5
330
F2
100
AcDbEntity
  8
Layer 1
370
     0
100
AcDbVertex
100
AcDb2dVertex
 10
106.0425205584913
 20
-99.99585722860489
 30
0.0
  0
VERTEX
  5
F6
330
F2
100
AcDbEntity
  8
Layer 1
370
     0
100
AcDbVertex
100
AcDb2dVertex
 10
105.6246302004506
 20
-102.8325507225105
 30
0.0
  0
SEQEND
  5
F7
330
F2
100
AcDbEntity
  8
Layer 1
370
     0
  0
HATCH
  5
F8
330
B5
100
AcDbEntity
  8
Layer 1
 62
     7
420
 16777215
100
AcDbHatch
 10
0.0
 20
0.0
 30
0.0
210
0.0
220
0.0
230
1.0
  2
SOLID
 70
     1
 71
     0
 91
        1
 92
        1
 93
        3
 72
     1
 10
105.6246302004506
 20
-102.8325507225105
 11
104.6586247891181
 21
-100.1333166291476
 72
     1
 10
104.6586247891181
 20
-100.1333166291476
 11
106.0425205584913
 21
-99.99585722860489
 72
     1
 10
106.0425205584913
 20
-99.99585722860489
 11
105.6246302004506
 21
-102.8325507225105
 97
        0
 75
     2
 76
     1
 98
        0
  0
POLYLINE
  5
F9
330
B5
100
AcDbEntity
  8
Layer 1
370
     0
100
AcDb2dPolyline
 66
     1
 10
0.0
 20
0.0
 30
0.0
  0
VERTEX
  5
FA
330
F9
100
AcDbEntity
  8
Layer 1
370
     0
100
AcDbVertex
100
AcDb2dVertex
 10
83.87538354466265
 20
-81.8293399862092
 30
0.0
  0
VERTEX
  5
FB
330
F9
100
AcDbEntity
  8
Layer 1
370
     0
100
AcDbVertex
100
AcDb2dVertex
 10
86.69588507910589
 20
-81.31291983229075
 30
0.0
  0
VERTEX
  5
FC
330
F9
100
AcDbEntity
  8
Layer 1
370
     0
100
AcDbVertex
100
AcDb2dVertex
 10
86.60682930206258
 20
-82.70060520919772
 30
0.0
  0
VERTEX
  5
FD
330
F9
100
AcDbEntity
  8
Layer 1
370
     0
100
AcDbVertex
100
AcDb2dVertex
 10
83.87538354466265
 20
-81.8293399862092
 30
0.0
  0
SEQEND
  5
FE
330
F9
100
AcDbEntity
  8
Layer 1
370
     0
  0
HATCH
  5
FF
330
B5
100
AcDbEntity
  8
Layer 1
 62
     7
420
 16777215
100
AcDbHatch
 10
0.0
 20
0.0
 30
0.0
210
0.0
220
0.0
230
1.0
  2
SOLID
 70
     1
 71
     0
 91
        1
 92
        1
 93
        3
 72
     1
 10
83.87538354466265
 20
-81.8293399862092
 11
86.69588507910589
 21
-81.31291983229075
 72
     1
 10
86.69588507910589
 20
-81.31291983229075
 11
86.60682930206258
 21
-82.70060520919772
 72
     1
 10
86.60682930206258
 20
-82.70060520919772
 11
83.87538354466265
 21
-81.8293399862092
 97
        0
 75
     2
 76
     1
 98
        0
  0
MTEXT
  5
100
330
B5
100
AcDbEntity
  8
Layer 1
 62
     7
420
 16777215
100
AcDbMText
 10
190.832233048117
 20
-101.1892390919628
 30
0.0
 40
2.458928848865124
 41
0.0
 71
     7
 72
     1
  1
\fHelvetica|b0|i0|c0|p34;\W1;82
 73
     1
 44
1.0
  0
POLYLINE
  5
101
330
B5
100
AcDbEntity
  8
Layer 1
370
     0
100
AcDb2dPolyline
 66
     1
 10
0.0
 20
0.0
 30
0.0
  0
VERTEX
  5
102
330
101
100
AcDbEntity
  8
Layer 1
370
     0
100
AcDbVertex
100
AcDb2dVertex
 10
193.8280900584405
 20
-137.7908189469873
 30
0.0
  0
VERTEX
  5
103
330
101
100
AcDbEntity
  8
Layer 1
370
     0
100
AcDbVertex
100
AcDb2dVertex
 10
193.0360620838851
 20
-135.0349129955058
 30
0.0
  0
VERTEX
  5
104
330
101
100
AcDbEntity
  8
Layer 1
370
     0
100
AcDbVertex
100
AcDb2dVertex
 10
194.4261590292227
 20
-134.9865093720065
 30
0.0
  0
VERTEX
  5
105
330
101
100
AcDbEntity
  8
Layer 1
370
     0
100
AcDbVertex
100
AcDb2dVertex
 10
193.8280900584405
 20
-137.7908189469873
 30
0.0
  0
SEQEND
  5
106
330
101
100
AcDbEntity
  8
Layer 1
370
     0
  0
HATCH
  5
107
330
B5
100
AcDbEntity
  8
Layer 1
 62
     7
420
 16777215
100
AcDbHatch
 10
0.0
 20
0.0
 30
0.0
210
0.0
220
0.0
230
1.0
  2
SOLID
 70
     1
 71
     0
 91
        1
 92
        1
 93
        3
 72
     1
 10
193.8280900584405
 20
-137.7908189469873
 11
193.0360620838851
 21
-135.0349129955058
 72
     1
 10
193.0360620838851
 20
-135.0349129955058
 11
194.4261590292227
 21
-134.9865093720065
 72
     1
 10
194.4261590292227
 20
-134.9865093720065
 11
193.8280900584405
 21
-137.7908189469873
 97
        0
 75
     2
 76
     1
 98
        0
  0
POLYLINE
  5
108
330
B5
100
AcDbEntity
  8
Layer 1
370
     0
100
AcDb2dPolyline
 66
     1
 10
0.0
 20
0.0
 30
0.0
  0
VERTEX
  5
109
330
108
100
AcDbEntity
  8
Layer 1
370
     0
100
AcDbVertex
100
AcDb2dVertex
 10
191.1750202750342
 20
-61.80677632671167
 30
0.0
  0
VERTEX
  5
10A
330
108
100
AcDbEntity
  8
Layer 1
370
     0
100
AcDbVertex
100
AcDb2dVertex
 10
191.9670482495896
 20
-64.56233776841732
 30
0.0
  0
VERTEX
  5
10B
330
108
100
AcDbEntity
  8
Layer 1
370
     0
100
AcDbVertex
100
AcDb2dVertex
 10
190.5769513042521
 20
-64.61108590169249
 30
0.0
  0
VERTEX
  5
10C
330
108
100
AcDbEntity
  8
Layer 1
370
     0
100
AcDbVertex
100
AcDb2dVertex
 10
191.1750202750342
 20
-61.80677632671167
 30
0.0
  0
SEQEND
  5
10D
330
108
100
AcDbEntity
  8
Layer 1
370
     0
  0
HATCH
  5
10E
330
B5
100
AcDbEntity
  8
Layer 1
 62
     7
420
 16777215
100
AcDbHatch
 10
0.0
 20
0.0
 30
0.0
210
0.0
220
0.0
230
1.0
  2
SOLID
 70
     1
 71
     0
 91
        1
 92
        1
 93
        3
 72
     1
 10
191.1750202750342
 20
-61.80677632671167
 11
191.9670482495896
 21
-64.56233776841732
 72
     1
 10
191.9670482495896
 20
-64.56233776841732
 11
190.5769513042521
 21
-64.61108590169249
 72
     1
 10
190.5769513042521
 20
-64.61108590169249
 11
191.1750202750342
 21
-61.80677632671167
 97
        0
 75
     2
 76
     1
 98
        0
  0
POLYLINE
  5
10F
330
B5
100
AcDbEntity
  8
Layer 1
 62
     7
420
 16777215
370
    25
100
AcDb2dPolyline
 66
     1
 10
0.0
 20
0.0
 30
0.0
  0
VERTEX
  5
110
330
10F
100
AcDbEntity
  8
Layer 1
 62
     7
420
 16777215
370
    25
100
AcDbVertex
100
AcDb2dVertex
 10
-65.72540277150519
 20
-263.3901259480998
 30
0.0
  0
VERTEX
  5
111
330
10F
100
AcDbEntity
  8
Layer 1
 62
     7
420
 16777215
370
    25
100
AcDbVertex
100
AcDb2dVertex
 10
-65.72540277150519
 20
11.98825117815508
 30
0.0
  0
SEQEND
  5
112
330
10F
100
AcDbEntity
  8
Layer 1
370
    25
  0
POLYLINE
  5
113
330
B5
100
AcDbEntity
  8
Layer 1
 62
     7
420
 16777215
370
    25
100
AcDb2dPolyline
 66
     1
 10
0.0
 20
0.0
 30
0.0
  0
VERTEX
  5
114
330
113
100
AcDbEntity
  8
Layer 1
 62
     7
420
 16777215
370
    25
100
AcDbVertex
100
AcDb2dVertex
 10
-65.72540277150519
 20
-263.3901259480998
 30
0.0
  0
VERTEX
  5
115
330
113
100
AcDbEntity
  8
Layer 1
 62
     7
420
 16777215
370
    25
100
AcDbVertex
100
AcDb2dVertex
 10
323.6982847500981
 20
-263.3901259480998
 30
0.0
  0
SEQEND
  5
116
330
113
100
AcDbEntity
  8
Layer 1
370
    25
  0
POLYLINE
  5
117
330
B5
100
AcDbEntity
  8
Layer 1
 62
     7
420
 16777215
370
    25
100
AcDb2dPolyline
 66
     1
 10
0.0
 20
0.0
 30
0.0
  0
VERTEX
  5
118
330
117
100
AcDbEntity
  8
Layer 1
 62
     7
420
 16777215
370
    25
100
AcDbVertex
100
AcDb2dVertex
 10
-65.72540277150519
 20
11.98825117815508
 30
0.0
  0
VERTEX
  5
119
330
117
100
AcDbEntity
  8
Layer 1
 62
     7
420
 16777215
370
    25
100
AcDbVertex
100
AcDb2dVertex
 10
323.6982847500981
 20
11.98825117815508
 30
0.0
  0
SEQEND
  5
11A
330
117
100
AcDbEntity
  8
Layer 1
370
    25
  0
POLYLINE
  5
11B
330
B5
100
AcDbEntity
  8
Layer 1
 62
     7
420
 16777215
370
    25
100
AcDb2dPolyline
 66
     1
 10
0.0
 20
0.0
 30
0.0
  0
VERTEX
  5
11C
330
11B
100
AcDbEntity
  8
Layer 1
 62
     7
420
 16777215
370
    25
100
AcDbVertex
100
AcDb2dVertex
 10
323.6982847500981
 20
-263.3901259480998
 30
0.0
  0
VERTEX
  5
11D
330
11B
100
AcDbEntity
  8
Layer 1
 62
     7
420
 16777215
370
    25
100
AcDbVertex
100
AcDb2dVertex
 10
323.6982847500981
 20
11.98825117815508
 30
0.0
  0
SEQEND
  5
11E
330
11B
100
AcDbEntity
  8
Layer 1
370
    25
  0
POLYLINE
  5
11F
330
B5
100
AcDbEntity
  8
Layer 1
 62
     7
420
 16777215
370
    25
100
AcDb2dPolyline
 66
     1
 10
0.0
 20
0.0
 30
0.0
  0
VERTEX
  5
120
330
11F
100
AcDbEntity
  8
Layer 1
 62
     7
420
 16777215
370
    25
100
AcDbVertex
100
AcDb2dVertex
 10
179.0048679352588
 20
-229.2361157952191
 30
0.0
  0
VERTEX
  5
121
330
11F
100
AcDbEntity
  8
Layer 1
 62
     7
420
 16777215
370
    25
100
AcDbVertex
100
AcDb2dVertex
 10
114.7041853415586
 20
-229.2361157952191
 30
0.0
  0
SEQEND
  5
122
330
11F
100
AcDbEntity
  8
Layer 1
370
    25
  0
POLYLINE
  5
123
330
B5
100
AcDbEntity
  8
Layer 1
 62
     7
420
 16777215
370
    25
100
AcDb2dPolyline
 66
     1
 10
0.0
 20
0.0
 30
0.0
  0
VERTEX
  5
124
330
123
100
AcDbEntity
  8
Layer 1
 62
     7
420
 16777215
370
    25
100
AcDbVertex
100
AcDb2dVertex
 10
42.6146534817708
 20
-229.2361157952191
 30
0.0
  0
VERTEX
  5
125
330
123
100
AcDbEntity
  8
Layer 1
 62
     7
420
 16777215
370
    25
100
AcDbVertex
100
AcDb2dVertex
 10
106.9155083303588
 20
-229.2361157952191
 30
0.0
  0
SEQEND
  5
126
330
123
100
AcDbEntity
  8
Layer 1
370
    25
  0
POLYLINE
  5
127
330
B5
100
AcDbEntity
  8
Layer 1
 62
     7
420
 16777215
370
    25
100
AcDb2dPolyline
 66
     1
 10
0.0
 20
0.0
 30
0.0
  0
VERTEX
  5
128
330
127
100
AcDbEntity
  8
Layer 1
 62
     7
420
 16777215
370
    25
100
AcDbVertex
100
AcDb2dVertex
 10
22.77485225833313
 20
-62.32423000995752
 30
0.0
  0
VERTEX
  5
129
330
127
100
AcDbEntity
  8
Layer 1
 62
     7
420
 16777215
370
    25
100
AcDbVertex
100
AcDb2dVertex
 10
22.77485225833313
 20
-125.7157513053316
 30
0.0
  0
SEQEND
  5
12A
330
127
100
AcDbEntity
  8
Layer 1
370
    25
  0
POLYLINE
  5
12B
330
B5
100
AcDbEntity
  8
Layer 1
 62
     7
420
 16777215
370
    25
100
AcDb2dPolyline
 66
     1
 10
0.0
 20
0.0
 30
0.0
  0
VERTEX
  5
12C
330
12B
100
AcDbEntity
  8
Layer 1
 62
     7
420
 16777215
370
    25
100
AcDbVertex
100
AcDb2dVertex
 10
22.77485225833313
 20
-194.6704164602621
 30
0.0
  0
VERTEX
  5
12D
330
12B
100
AcDbEntity
  8
Layer 1
 62
     7
420
 16777215
370
    25
100
AcDbVertex
100
AcDb2dVertex
 10
22.77485225833313
 20
-131.2788951648881
 30
0.0
  0
SEQEND
  5
12E
330
12B
100
AcDbEntity
  8
Layer 1
370
    25
  0
POLYLINE
  5
12F
330
B5
100
AcDbEntity
  8
Layer 1
 62
     7
420
 16777215
370
    25
100
AcDb2dPolyline
 66
     1
 10
0.0
 20
0.0
 30
0.0
  0
VERTEX
  5
130
330
12F
100
AcDbEntity
  8
Layer 1
 62
     7
420
 16777215
370
    25
100
AcDbVertex
100
AcDb2dVertex
 10
125.1355968428908
 20
-214.0404786044018
 30
0.0
  0
VERTEX
  5
131
330
12F
100
AcDbEntity
  8
Layer 1
 62
     7
420
 16777215
370
    25
100
AcDbVertex
100
AcDb2dVertex
 10
86.93514711839633
 20
-214.0404786044018
 30
0.0
  0
SEQEND
  5
132
330
12F
100
AcDbEntity
  8
Layer 1
370
    25
  0
POLYLINE
  5
133
330
B5
100
AcDbEntity
  8
Layer 1
 62
     7
420
 16777215
370
    25
100
AcDb2dPolyline
 66
     1
 10
0.0
 20
0.0
 30
0.0
  0
VERTEX
  5
134
330
133
100
AcDbEntity
  8
Layer 1
 62
     7
420
 16777215
370
    25
100
AcDbVertex
100
AcDb2dVertex
 10
42.6146534817708
 20
-214.0404786044018
 30
0.0
  0
VERTEX
  5
135
330
133
100
AcDbEntity
  8
Layer 1
 62
     7
420
 16777215
370
    25
100
AcDbVertex
100
AcDb2dVertex
 10
80.81544771604108
 20
-214.0404786044018
 30
0.0
  0
SEQEND
  5
136
330
133
100
AcDbEntity
  8
Layer 1
370
    25
  0
POLYLINE
  5
137
330
B5
100
AcDbEntity
  8
Layer 1
 62
     7
420
 16777215
370
    25
100
AcDb2dPolyline
 66
     1
 10
0.0
 20
0.0
 30
0.0
  0
VERTEX
  5
138
330
137
100
AcDbEntity
  8
Layer 1
 62
     7
420
 16777215
370
    25
100
AcDbVertex
100
AcDb2dVertex
 10
42.6146534817708
 20
-196.0612024251513
 30
0.0
  0
VERTEX
  5
139
330
137
100
AcDbEntity
  8
Layer 1
 62
     7
420
 16777215
370
    25
100
AcDbVertex
100
AcDb2dVertex
 10
42.6146534817708
 20
-232.0176877249974
 30
0.0
  0
SEQEND
  5
13A
330
137
100
AcDbEntity
  8
Layer 1
370
    25
  0
POLYLINE
  5
13B
330
B5
100
AcDbEntity
  8
Layer 1
 62
     7
420
 16777215
370
    25
100
AcDb2dPolyline
 66
     1
 10
0.0
 20
0.0
 30
0.0
  0
VERTEX
  5
13C
330
13B
100
AcDbEntity
  8
Layer 1
 62
     7
420
 16777215
370
    25
100
AcDbVertex
100
AcDb2dVertex
 10
45.86010782465861
 20
-151.0919968807016
 30
0.0
  0
VERTEX
  5
13D
330
13B
100
AcDbEntity
  8
Layer 1
 62
     7
420
 16777215
370
    25
100
AcDbVertex
100
AcDb2dVertex
 10
45.86010782465861
 20
-152.0001246497003
 30
0.0
  0
SEQEND
  5
13E
330
13B
100
AcDbEntity
  8
Layer 1
370
    25
  0
POLYLINE
  5
13F
330
B5
100
AcDbEntity
  8
Layer 1
 62
     7
420
 16777215
370
    25
100
AcDb2dPolyline
 66
     1
 10
0.0
 20
0.0
 30
0.0
  0
VERTEX
  5
140
330
13F
100
AcDbEntity
  8
Layer 1
 62
     7
420
 16777215
370
    25
100
AcDbVertex
100
AcDb2dVertex
 10
41.22421202665746
 20
-194.6704164602621
 30
0.0
  0
VERTEX
  5
141
330
13F
100
AcDbEntity
  8
Layer 1
 62
     7
420
 16777215
370
    25
100
AcDbVertex
100
AcDb2dVertex
 10
19.99328032855486
 20
-194.6704164602621
 30
0.0
  0
SEQEND
  5
142
330
13F
100
AcDbEntity
  8
Layer 1
370
    25
  0
POLYLINE
  5
143
330
B5
100
AcDbEntity
  8
Layer 1
 62
     7
420
 16777215
370
    25
100
AcDb2dPolyline
 66
     1
 10
0.0
 20
0.0
 30
0.0
  0
VERTEX
  5
144
330
143
100
AcDbEntity
  8
Layer 1
 62
     7
420
 16777215
370
    25
100
AcDbVertex
100
AcDb2dVertex
 10
83.87538354466265
 20
-102.2010643034762
 30
0.0
  0
VERTEX
  5
145
330
143
100
AcDbEntity
  8
Layer 1
 62
     7
420
 16777215
370
    25
100
AcDbVertex
100
AcDb2dVertex
 10
83.87538354466265
 20
-79.04759580154304
 30
0.0
  0
SEQEND
  5
146
330
143
100
AcDbEntity
  8
Layer 1
370
    25
  0
POLYLINE
  5
147
330
B5
100
AcDbEntity
  8
Layer 1
 62
     7
420
 16777215
370
    25
100
AcDb2dPolyline
 66
     1
 10
0.0
 20
0.0
 30
0.0
  0
VERTEX
  5
148
330
147
100
AcDbEntity
  8
Layer 1
 62
     7
420
 16777215
370
    25
100
AcDbVertex
100
AcDb2dVertex
 10
121.8906592646667
 20
-152.0001246497003
 30
0.0
  0
VERTEX
  5
149
330
147
100
AcDbEntity
  8
Layer 1
 62
     7
420
 16777215
370
    25
100
AcDbVertex
100
AcDb2dVertex
 10
45.86010782465861
 20
-152.0001246497003
 30
0.0
  0
SEQEND
  5
14A
330
147
100
AcDbEntity
  8
Layer 1
370
    25
  0
POLYLINE
  5
14B
330
B5
100
AcDbEntity
  8
Layer 1
 62
   252
420
 10000536
370
    25
100
AcDb2dPolyline
 66
     1
 10
0.0
 20
0.0
 30
0.0
  0
VERTEX
  5
14C
330
14B
100
AcDbEntity
  8
Layer 1
 62
   252
420
 10000536
370
    25
100
AcDbVertex
100
AcDb2dVertex
 10
121.8906592646667
 20
-151.0919968807016
 30
0.0
  0
VERTEX
  5
14D
330
14B
100
AcDbEntity
  8
Layer 1
 62
   252
420
 10000536
370
    25
100
AcDbVertex
100
AcDb2dVertex
 10
45.86010782465861
 20
-151.0919968807016
 30
0.0
  0
SEQEND
  5
14E
330
14B
100
AcDbEntity
  8
Layer 1
370
    25
  0
POLYLINE
  5
14F
330
B5
100
AcDbEntity
  8
Layer 1
 62
     7
420
 16777215
370
    25
100
AcDb2dPolyline
 66
     1
 10
0.0
 20
0.0
 30
0.0
  0
VERTEX
  5
150
330
14F
100
AcDbEntity
  8
Layer 1
 62
     7
420
 16777215
370
    25
100
AcDbVertex
100
AcDb2dVertex
 10
179.0048679352588
 20
-138.3086171400089
 30
0.0
  0
VERTEX
  5
151
330
14F
100
AcDbEntity
  8
Layer 1
 62
     7
420
 16777215
370
    25
100
AcDbVertex
100
AcDb2dVertex
 10
132.6731262275352
 20
-139.9262627922598
 30
0.0
  0
SEQEND
  5
152
330
14F
100
AcDbEntity
  8
Layer 1
370
    25
  0
POLYLINE
  5
153
330
B5
100
AcDbEntity
  8
Layer 1
 62
     7
420
 16777215
370
    25
100
AcDb2dPolyline
 66
     1
 10
0.0
 20
0.0
 30
0.0
  0
VERTEX
  5
154
330
153
100
AcDbEntity
  8
Layer 1
 62
     7
420
 16777215
370
    25
100
AcDbVertex
100
AcDb2dVertex
 10
180.3949648805963
 20
-138.2598690067338
 30
0.0
  0
VERTEX
  5
155
330
153
100
AcDbEntity
  8
Layer 1
 62
     7
420
 16777215
370
    25
100
AcDbVertex
100
AcDb2dVertex
 10
196.6082839491156
 20
-137.6934949353249
 30
0.0
  0
SEQEND
  5
156
330
153
100
AcDbEntity
  8
Layer 1
370
    25
  0
POLYLINE
  5
157
330
B5
100
AcDbEntity
  8
Layer 1
 62
     7
420
 16777215
370
    25
100
AcDb2dPolyline
 66
     1
 10
0.0
 20
0.0
 30
0.0
  0
VERTEX
  5
158
330
157
100
AcDbEntity
  8
Layer 1
 62
     7
420
 16777215
370
    25
100
AcDbVertex
100
AcDb2dVertex
 10
121.8906592646667
 20
-151.0919968807016
 30
0.0
  0
VERTEX
  5
159
330
157
100
AcDbEntity
  8
Layer 1
 62
     7
420
 16777215
370
    25
100
AcDbVertex
100
AcDb2dVertex
 10
121.8906592646667
 20
-152.0001246497003
 30
0.0
  0
SEQEND
  5
15A
330
157
100
AcDbEntity
  8
Layer 1
370
    25
  0
POLYLINE
  5
15B
330
B5
100
AcDbEntity
  8
Layer 1
 62
     7
420
 16777215
370
    25
100
AcDb2dPolyline
 66
     1
 10
0.0
 20
0.0
 30
0.0
  0
VERTEX
  5
15C
330
15B
100
AcDbEntity
  8
Layer 1
 62
     7
420
 16777215
370
    25
100
AcDbVertex
100
AcDb2dVertex
 10
125.1355968428908
 20
-196.0612024251513
 30
0.0
  0
VERTEX
  5
15D
330
15B
100
AcDbEntity
  8
Layer 1
 62
     7
420
 16777215
370
    25
100
AcDbVertex
100
AcDb2dVertex
 10
125.1355968428908
 20
-216.8217060244042
 30
0.0
  0
SEQEND
  5
15E
330
15B
100
AcDbEntity
  8
Layer 1
370
    25
  0
POLYLINE
  5
15F
330
B5
100
AcDbEntity
  8
Layer 1
 62
   252
420
 10000536
370
    25
100
AcDb2dPolyline
 66
     1
 10
0.0
 20
0.0
 30
0.0
  0
VERTEX
  5
160
330
15F
100
AcDbEntity
  8
Layer 1
 62
   252
420
 10000536
370
    25
100
AcDbVertex
100
AcDb2dVertex
 10
132.6731262275352
 20
-139.9262627922598
 30
0.0
  0
VERTEX
  5
161
330
15F
100
AcDbEntity
  8
Layer 1
 62
   252
420
 10000536
370
    25
100
AcDbVertex
100
AcDb2dVertex
 10
130.0193674245773
 20
-63.94239242687213
 30
0.0
  0
SEQEND
  5
162
330
15F
100
AcDbEntity
  8
Layer 1
370
    25
  0
POLYLINE
  5
163
330
B5
100
AcDbEntity
  8
Layer 1
 62
     7
420
 16777215
370
    25
100
AcDb2dPolyline
 66
     1
 10
0.0
 20
0.0
 30
0.0
  0
VERTEX
  5
164
330
163
100
AcDbEntity
  8
Layer 1
 62
     7
420
 16777215
370
    25
100
AcDbVertex
100
AcDb2dVertex
 10
85.2654804900002
 20
-103.5434466448659
 30
0.0
  0
VERTEX
  5
165
330
163
100
AcDbEntity
  8
Layer 1
 62
     7
420
 16777215
370
    25
100
AcDbVertex
100
AcDb2dVertex
 10
108.4048240911257
 20
-102.7357434755118
 30
0.0
  0
SEQEND
  5
166
330
163
100
AcDbEntity
  8
Layer 1
370
    25
  0
POLYLINE
  5
167
330
B5
100
AcDbEntity
  8
Layer 1
 62
     7
420
 16777215
370
    25
100
AcDb2dPolyline
 66
     1
 10
0.0
 20
0.0
 30
0.0
  0
VERTEX
  5
168
330
167
100
AcDbEntity
  8
Layer 1
 62
     7
420
 16777215
370
    25
100
AcDbVertex
100
AcDb2dVertex
 10
176.3514536420767
 20
-62.32423000995752
 30
0.0
  0
VERTEX
  5
169
330
167
100
AcDbEntity
  8
Layer 1
 62
     7
420
 16777215
370
    25
100
AcDbVertex
100
AcDb2dVertex
 10
130.0193674245773
 20
-63.94239242687213
 30
0.0
  0
SEQEND
  5
16A
330
167
100
AcDbEntity
  8
Layer 1
370
    25
  0
POLYLINE
  5
16B
330
B5
100
AcDbEntity
  8
Layer 1
 62
     7
420
 16777215
370
    25
100
AcDb2dPolyline
 66
     1
 10
0.0
 20
0.0
 30
0.0
  0
VERTEX
  5
16C
330
16B
100
AcDbEntity
  8
Layer 1
 62
     7
420
 16777215
370
    25
100
AcDbVertex
100
AcDb2dVertex
 10
177.7415505874142
 20
-62.27582638645816
 30
0.0
  0
VERTEX
  5
16D
330
16B
100
AcDbEntity
  8
Layer 1
 62
     7
420
 16777215
370
    25
100
AcDbVertex
100
AcDb2dVertex
 10
193.9548696559335
 20
-61.70962456993716
 30
0.0
  0
SEQEND
  5
16E
330
16B
100
AcDbEntity
  8
Layer 1
370
    25
  0
POLYLINE
  5
16F
330
B5
100
AcDbEntity
  8
Layer 1
 62
     7
420
 16777215
370
    25
100
AcDb2dPolyline
 66
     1
 10
0.0
 20
0.0
 30
0.0
  0
VERTEX
  5
170
330
16F
100
AcDbEntity
  8
Layer 1
 62
     7
420
 16777215
370
    25
100
AcDbVertex
100
AcDb2dVertex
 10
176.3514536420767
 20
-62.32423000995752
 30
0.0
  0
VERTEX
  5
171
330
16F
100
AcDbEntity
  8
Layer 1
 62
     7
420
 16777215
370
    25
100
AcDbVertex
100
AcDb2dVertex
 10
179.0048679352588
 20
-138.3086171400089
 30
0.0
  0
SEQEND
  5
172
330
16F
100
AcDbEntity
  8
Layer 1
370
    25
  0
POLYLINE
  5
173
330
B5
100
AcDbEntity
  8
Layer 1
 62
     7
420
 16777215
370
    25
100
AcDb2dPolyline
 66
     1
 10
0.0
 20
0.0
 30
0.0
  0
VERTEX
  5
174
330
173
100
AcDbEntity
  8
Layer 1
 62
     7
420
 16777215
370
    25
100
AcDbVertex
100
AcDb2dVertex
 10
179.0048679352588
 20
-139.6994031048981
 30
0.0
  0
VERTEX
  5
175
330
173
100
AcDbEntity
  8
Layer 1
 62
     7
420
 16777215
370
    25
100
AcDbVertex
100
AcDb2dVertex
 10
179.0048679352588
 20
-232.0176877249974
 30
0.0
  0
SEQEND
  5
176
330
173
100
AcDbEntity
  8
Layer 1
370
    25
  0
POLYLINE
  5
177
330
B5
100
AcDbEntity
  8
Layer 1
 62
     7
420
 16777215
370
    25
100
AcDb2dPolyline
 66
     1
 10
0.0
 20
0.0
 30
0.0
  0
VERTEX
  5
178
330
177
100
AcDbEntity
  8
Layer 1
 62
     7
420
 16777215
370
    25
100
AcDbVertex
100
AcDb2dVertex
 10
174.9606676771875
 20
-62.32423000995752
 30
0.0
  0
VERTEX
  5
179
330
177
100
AcDbEntity
  8
Layer 1
 62
     7
420
 16777215
370
    25
100
AcDbVertex
100
AcDb2dVertex
 10
19.99328032855486
 20
-62.32423000995752
 30
0.0
  0
SEQEND
  5
17A
330
177
100
AcDbEntity
  8
Layer 1
370
    25
  0
POLYLINE
  5
17B
330
B5
100
AcDbEntity
  8
Layer 1
 62
     7
420
 16777215
370
    25
100
AcDb2dPolyline
 66
     1
 10
0.0
 20
0.0
 30
0.0
  0
VERTEX
  5
17C
330
17B
100
AcDbEntity
  8
Layer 1
 62
     7
420
 16777215
370
    25
100
AcDbVertex
100
AcDb2dVertex
 10
191.1750202750342
 20
-61.80677632671167
 30
0.0
  0
VERTEX
  5
17D
330
17B
100
AcDbEntity
  8
Layer 1
 62
     7
420
 16777215
370
    25
100
AcDbVertex
100
AcDb2dVertex
 10
192.4045756648507
 20
-97.01688119729542
 30
0.0
  0
SEQEND
  5
17E
330
17B
100
AcDbEntity
  8
Layer 1
370
    25
  0
POLYLINE
  5
17F
330
B5
100
AcDbEntity
  8
Layer 1
 62
     7
420
 16777215
370
    25
100
AcDb2dPolyline
 66
     1
 10
0.0
 20
0.0
 30
0.0
  0
VERTEX
  5
180
330
17F
100
AcDbEntity
  8
Layer 1
 62
     7
420
 16777215
370
    25
100
AcDbVertex
100
AcDb2dVertex
 10
193.8280900584405
 20
-137.7908189469873
 30
0.0
  0
VERTEX
  5
181
330
17F
100
AcDbEntity
  8
Layer 1
 62
     7
420
 16777215
370
    25
100
AcDbVertex
100
AcDb2dVertex
 10
192.5988791783998
 20
-102.5801973117399
 30
0.0
  0
SEQEND
  5
182
330
17F
100
AcDbEntity
  8
Layer 1
370
    25
  0
SPLINE
  5
183
330
B5
100
AcDbEntity
  8
Layer 1
 62
     7
420
 16777215
370
    25
100
AcDbSpline
210
0.0
220
0.0
230
1.0
 70
     8
 71
     3
 72
     8
 73
     4
 74
     0
 42
0.0000000001
 43
0.0000000001
 40
0.0
 40
0.0
 40
0.0
 40
0.0
 40
1.0
 40
1.0
 40
1.0
 40
1.0
 10
130.0193674245773
 20
-63.94239242687213
 30
0.0
 10
83.07198674750599
 20
-65.5817421949982
 30
0.0
 10
45.86010782465861
 20
-104.1156773824634
 30
0.0
 10
45.86010782465861
 20
-151.0919968807016
 30
0.0
  0
SPLINE
  5
184
330
B5
100
AcDbEntity
  8
Layer 1
 62
     7
420
 16777215
370
    25
100
AcDbSpline
210
0.0
220
0.0
230
1.0
 70
     8
 71
     3
 72
     8
 73
     4
 74
     0
 42
0.0000000001
 43
0.0000000001
 40
0.0
 40
0.0
 40
0.0
 40
0.0
 40
1.0
 40
1.0
 40
1.0
 40
1.0
 10
105.6246302004506
 20
-102.8325507225105
 30
0.0
 10
105.4721846246608
 20
-98.46416676541511
 30
0.0
 10
104.0080180775271
 20
-94.24288848258466
 30
0.0
 10
101.4222999552889
 20
-90.71872573107775
 30
0.0
  0
SPLINE
  5
185
330
B5
100
AcDbEntity
  8
Layer 1
 62
     7
420
 16777215
370
    25
100
AcDbSpline
210
0.0
220
0.0
230
1.0
 70
     8
 71
     3
 72
     8
 73
     4
 74
     0
 42
0.0000000001
 43
0.0000000001
 40
0.0
 40
0.0
 40
0.0
 40
0.0
 40
1.0
 40
1.0
 40
1.0
 40
1.0
 10
95.43902642414896
 20
-85.15558187152122
 30
0.0
 10
91.97343033452741
 20
-82.98206969602319
 30
0.0
 10
87.96592036757846
 20
-81.8293399862092
 30
0.0
 10
83.87538354466265
 20
-81.8293399862092
 30
0.0
  0
SPLINE
  5
186
330
B5
100
AcDbEntity
  8
Layer 1
 62
     7
420
 16777215
370
    25
100
AcDbSpline
210
0.0
220
0.0
230
1.0
 70
     8
 71
     3
 72
     8
 73
     4
 74
     0
 42
0.0000000001
 43
0.0000000001
 40
0.0
 40
0.0
 40
0.0
 40
0.0
 40
1.0
 40
1.0
 40
1.0
 40
1.0
 10
132.6731262275352
 20
-139.9262627922598
 30
0.0
 10
126.6579855421341
 20
-140.1364137554955
 30
0.0
 10
121.8906592646667
 20
-145.0735833524304
 30
0.0
 10
121.8906592646667
 20
-151.0919968807016
 30
0.0
  0
POLYLINE
  5
187
330
B5
100
AcDbEntity
  8
Layer 1
 62
     7
420
 16777215
370
    25
100
AcDb2dPolyline
 66
     1
 10
0.0
 20
0.0
 30
0.0
  0
VERTEX
  5
188
330
187
100
AcDbEntity
  8
Layer 1
 62
     7
420
 16777215
370
    25
100
AcDbVertex
100
AcDb2dVertex
 10
42.6146534817708
 20
-153.8735688104798
 30
0.0
  0
VERTEX
  5
189
330
187
100
AcDbEntity
  8
Layer 1
 62
     7
420
 16777215
370
    25
100
AcDbVertex
100
AcDb2dVertex
 10
42.6146534817708
 20
-194.6704164602621
 30
0.0
  0
SEQEND
  5
18A
330
187
100
AcDbEntity
  8
Layer 1
370
    25
  0
POLYLINE
  5
18B
330
B5
100
AcDbEntity
  8
Layer 1
 62
     7
420
 16777215
370
    25
100
AcDb2dPolyline
 66
     1
 10
0.0
 20
0.0
 30
0.0
  0
VERTEX
  5
18C
330
18B
100
AcDbEntity
  8
Layer 1
 62
     7
420
 16777215
370
    25
100
AcDbVertex
100
AcDb2dVertex
 10
125.1355968428908
 20
-194.6704164602621
 30
0.0
  0
VERTEX
  5
18D
330
18B
100
AcDbEntity
  8
Layer 1
 62
     7
420
 16777215
370
    25
100
AcDbVertex
100
AcDb2dVertex
 10
42.6146534817708
 20
-194.6704164602621
 30
0.0
  0
SEQEND
  5
18E
330
18B
100
AcDbEntity
  8
Layer 1
370
    25
  0
POLYLINE
  5
18F
330
B5
100
AcDbEntity
  8
Layer 1
  6
AI-Linetype-1
 62
     7
420
 16777215
370
    25
100
AcDb2dPolyline
 66
     1
 10
0.0
 20
0.0
 30
0.0
  0
VERTEX
  5
190
330
18F
100
AcDbEntity
  8
Layer 1
  6
AI-Linetype-1
 62
     7
420
 16777215
370
    25
100
AcDbVertex
100
AcDb2dVertex
 10
83.87538354466265
 20
-196.9886227415946
 30
0.0
  0
VERTEX
  5
191
330
18F
100
AcDbEntity
  8
Layer 1
  6
AI-Linetype-1
 62
     7
420
 16777215
370
    25
100
AcDbVertex
100
AcDb2dVertex
 10
83.87538354466265
 20
-60.73793474730406
 30
0.0
  0
SEQEND
  5
192
330
18F
100
AcDbEntity
  8
Layer 1
  6
AI-Linetype-1
370
    25
  0
POLYLINE
  5
194
330
B5
100
AcDbEntity
  8
Layer 1
 62
     7
420
 16777215
370
    25
100
AcDb2dPolyline
 66
     1
 10
0.0
 20
0.0
 30
0.0
  0
VERTEX
  5
195
330
194
100
AcDbEntity
  8
Layer 1
 62
     7
420
 16777215
370
    25
100
AcDbVertex
100
AcDb2dVertex
 10
125.1355968428908
 20
-153.8735688104798
 30
0.0
  0
VERTEX
  5
196
330
194
100
AcDbEntity
  8
Layer 1
 62
     7
420
 16777215
370
    25
100
AcDbVertex
100
AcDb2dVertex
 10
42.6146534817708
 20
-153.8735688104798
 30
0.0
  0
SEQEND
  5
197
330
194
100
AcDbEntity
  8
Layer 1
370
    25
  0
POLYLINE
  5
198
330
B5
100
AcDbEntity
  8
Layer 1
 62
     7
420
 16777215
370
    25
100
AcDb2dPolyline
 66
     1
 10
0.0
 20
0.0
 30
0.0
  0
VERTEX
  5
199
330
198
100
AcDbEntity
  8
Layer 1
 62
     7
420
 16777215
370
    25
100
AcDbVertex
100
AcDb2dVertex
 10
45.86010782465861
 20
-152.0001246497003
 30
0.0
  0
VERTEX
  5
19A
330
198
100
AcDbEntity
  8
Layer 1
 62
     7
420
 16777215
370
    25
100
AcDbVertex
100
AcDb2dVertex
 10
42.6146534817708
 20
-153.8735688104798
 30
0.0
  0
SEQEND
  5
19B
330
198
100
AcDbEntity
  8
Layer 1
370
    25
  0
POLYLINE
  5
19C
330
B5
100
AcDbEntity
  8
Layer 1
 62
     7
420
 16777215
370
    25
100
AcDb2dPolyline
 66
     1
 10
0.0
 20
0.0
 30
0.0
  0
VERTEX
  5
19D
330
19C
100
AcDbEntity
  8
Layer 1
 62
     7
420
 16777215
370
    25
100
AcDbVertex
100
AcDb2dVertex
 10
121.8906592646667
 20
-152.0001246497003
 30
0.0
  0
VERTEX
  5
19E
330
19C
100
AcDbEntity
  8
Layer 1
 62
     7
420
 16777215
370
    25
100
AcDbVertex
100
AcDb2dVertex
 10
125.1355968428908
 20
-153.8735688104798
 30
0.0
  0
SEQEND
  5
19F
330
19C
100
AcDbEntity
  8
Layer 1
370
    25
  0
POLYLINE
  5
1A0
330
B5
100
AcDbEntity
  8
Layer 1
 62
     7
420
 16777215
370
    25
100
AcDb2dPolyline
 66
     1
 10
0.0
 20
0.0
 30
0.0
  0
VERTEX
  5
1A1
330
1A0
100
AcDbEntity
  8
Layer 1
 62
     7
420
 16777215
370
    25
100
AcDbVertex
100
AcDb2dVertex
 10
125.1355968428908
 20
-153.8735688104798
 30
0.0
  0
VERTEX
  5
1A2
330
1A0
100
AcDbEntity
  8
Layer 1
 62
     7
420
 16777215
370
    25
100
AcDbVertex
100
AcDb2dVertex
 10
125.1355968428908
 20
-194.6704164602621
 30
0.0
  0
SEQEND
  5
1A3
330
1A0
100
AcDbEntity
  8
Layer 1
370
    25
  0
POLYLINE
  5
1A4
330
B5
100
AcDbEntity
  8
Layer 1
  6
AI-Linetype-2
 62
     7
420
 16777215
370
    25
100
AcDb2dPolyline
 66
     1
 10
0.0
 20
0.0
 30
0.0
  0
VERTEX
  5
1A5
330
1A4
100
AcDbEntity
  8
Layer 1
  6
AI-Linetype-2
 62
     7
420
 16777215
370
    25
100
AcDbVertex
100
AcDb2dVertex
 10
42.8401351300294
 20
-105.0248386807895
 30
0.0
  0
VERTEX
  5
1A6
330
1A4
100
AcDbEntity
  8
Layer 1
  6
AI-Linetype-2
 62
     7
420
 16777215
370
    25
100
AcDbVertex
100
AcDb2dVertex
 10
179.470989661911
 20
-100.2535505409004
 30
0.0
  0
SEQEND
  5
1A7
330
1A4
100
AcDbEntity
  8
Layer 1
  6
AI-Linetype-2
370
    25
  0
POLYLINE
  5
1A9
330
B5
100
AcDbEntity
  8
Layer 1
370
     0
100
AcDb2dPolyline
 66
     1
 10
0.0
 20
0.0
 30
0.0
  0
VERTEX
  5
1AA
330
1A9
100
AcDbEntity
  8
Layer 1
370
     0
100
AcDbVertex
100
AcDb2dVertex
 10
-65.72540277150519
 20
11.98807892326719
 30
0.0
  0
VERTEX
  5
1AB
330
1A9
100
AcDbEntity
  8
Layer 1
370
     0
100
AcDbVertex
100
AcDb2dVertex
 10
323.6982847500981
 20
11.98807892326719
 30
0.0
  0
VERTEX
  5
1AC
330
1A9
100
AcDbEntity
  8
Layer 1
370
     0
100
AcDbVertex
100
AcDb2dVertex
 10
323.6982847500981
 20
-263.3901259480998
 30
0.0
  0
VERTEX
  5
1AD
330
1A9
100
AcDbEntity
  8
Layer 1
370
     0
100
AcDbVertex
100
AcDb2dVertex
 10
-65.72540277150519
 20
-263.3901259480998
 30
0.0
  0
VERTEX
  5
1AE
330
1A9
100
AcDbEntity
  8
Layer 1
370
     0
100
AcDbVertex
100
AcDb2dVertex
 10
-65.72540277150519
 20
11.98807892326719
 30
0.0
  0
SEQEND
  5
1AF
330
1A9
100
AcDbEntity
  8
Layer 1
370
     0
  0
ENDBLK
  5
B8
330
B5
100
AcDbEntity
  8
0
100
AcDbBlockEnd
  0
ENDSEC
  0
SECTION
  2
ENTITIES
  0
INSERT
  5
3D
330
1F
100
AcDbEntity
  8
Layer 1
100
AcDbBlockReference
  2
block 2
 10
0.0
 20
0.0
 30
0.0
  0
MTEXT
  5
4C
330
1F
100
AcDbEntity
  8
Layer 1
 62
    18
420
    65793
100
AcDbMText
 10
133.9591812205823
 20
-260.1055697456591
 30
0.0
 40
3.920669683827083
 41
0.0
 71
     7
 72
     1
  1
\fArial|b0|i0|c0|p34;\W0.978972;171.80.88
 73
     1
 44
1.0
  0
MTEXT
  5
4D
330
1F
100
AcDbEntity
  8
Layer 1
 62
    18
420
    65793
100
AcDbMText
 10
195.9998796850596
 20
-280.3944394618471
 30
0.0
 40
2.63876917007248
 41
0.0
 71
     7
 72
     1
  1
\fCentury Gothic|b0|i0|c0|p34;\W0.990688;A4
 73
     1
 44
1.0
  0
MTEXT
  5
4E
330
1F
100
AcDbEntity
  8
Layer 1
 62
    18
420
    65793
100
AcDbMText
 10
164.0283389618477
 20
-289.6252343945296
 30
0.0
 40
1.360006220349461
 41
0.0
 71
     7
 72
     1
  1
\fCentury Gothic|b0|i0|c0|p34;\W0.968579;SHEET 1 OF 1
 73
     1
 44
1.0
  0
MTEXT
  5
4F
330
1F
100
AcDbEntity
  8
Layer 1
 62
    18
420
    65793
100
AcDbMText
 10
14.37983804173209
 20
-289.6252343945296
 30
0.0
 40
1.360007461723616
 41
0.0
 71
     7
 72
     1
  1
\fCentury Gothic|b0|i0|c0|p34;\W0.97601;SCALE:
 73
     1
 44
1.0
  0
MTEXT
  5
50
330
1F
100
AcDbEntity
  8
Layer 1
 62
    18
420
    65793
100
AcDbMText
 10
92.70413556899108
 20
-258.0150844261279
 30
0.0
 40
1.360002582392795
 41
0.0
 71
     7
 72
     1
  1
\fCentury Gothic|b0|i0|c0|p34;\W0.980594;CONTACT:
 73
     1
 44
1.0
  0
MTEXT
  5
51
330
1F
100
AcDbEntity
  8
Layer 1
 62
    18
420
    65793
100
AcDbMText
 10
12.30502791699966
 20
-279.6992187342904
 30
0.0
 40
1.401043046795339
 41
0.0
 71
     7
 72
     1
  1
\fArial|b0|i0|c0|p34;\W0.978962;Disclaimer: This information is intended solely as a guide for use fo Marley NZ products. Before using you should ensure that the product is suitable for use in the specific application. 
 73
     1
 44
1.0
  0
MTEXT
  5
52
330
1F
100
AcDbEntity
  8
Layer 1
 62
    18
420
    65793
100
AcDbMText
 10
12.30502791699966
 20
-282.1982926479158
 30
0.0
 40
1.401046053346698
 41
0.0
 71
     7
 72
     1
  1
\fArial|b0|i0|c0|p34;\W0.980854;Marley NZ makes no warranty regarding the use of this information with non-Marley NZ products. This drawing is the property of Marley NZ Ltd.
 73
     1
 44
1.0
  0
MTEXT
  5
53
330
1F
100
AcDbEntity
  8
Layer 1
 62
    18
420
    65793
100
AcDbMText
 10
87.19663003822562
 20
-263.391503987203
 30
0.0
 40
2.159002374990015
 41
0.0
 71
     7
 72
     1
  1
\fArial,Bold|b0|i0|c0|p34;\W0.984785;0800 MARLEY
 73
     1
 44
1.0
  0
MTEXT
  5
54
330
1F
100
AcDbEntity
  8
Layer 1
 62
    18
420
    65793
100
AcDbMText
 10
85.09804873896326
 20
-266.5665060809404
 30
0.0
 40
2.158997867676741
 41
0.0
 71
     7
 72
     1
  1
\fArial|b0|i0|c0|p34;\W0.979154;www.marley.co.nz
 73
     1
 44
1.0
  0
MTEXT
  5
55
330
1F
100
AcDbEntity
  8
Layer 1
 62
    18
420
    65793
100
AcDbMText
 10
122.1442184596527
 20
-259.3696968645585
 30
0.0
 40
1.360004643435278
 41
0.0
 71
     7
 72
     1
  1
\fCentury Gothic|b0|i0|c0|p34;\W0.979211;DWG NO.
 73
     1
 44
1.0
  0
MTEXT
  5
56
330
1F
100
AcDbEntity
  8
Layer 1
 62
    18
420
    65793
100
AcDbMText
 10
128.9875606460678
 20
-289.6748438022443
 30
0.0
 40
1.360000406379835
 41
0.0
 71
     7
 72
     1
  1
\fCentury Gothic|b0|i0|c0|p34;\W0.971081;DATE: 30/06/11
 73
     1
 44
1.0
  0
POLYLINE
  5
57
330
1F
100
AcDbEntity
  8
Layer 1
 62
     9
420
 12631999
370
    50
100
AcDb2dPolyline
 66
     1
 10
0.0
 20
0.0
 30
0.0
  0
VERTEX
  5
58
330
57
100
AcDbEntity
  8
Layer 1
 62
     9
420
 12631999
370
    50
100
AcDbVertex
100
AcDb2dVertex
 10
205.0697885524453
 20
-292.0099310625907
 30
0.0
  0
VERTEX
  5
59
330
57
100
AcDbEntity
  8
Layer 1
 62
     9
420
 12631999
370
    50
100
AcDbVertex
100
AcDb2dVertex
 10
205.0697885524453
 20
-4.990051847519608
 30
0.0
  0
SEQEND
  5
5A
330
57
100
AcDbEntity
  8
Layer 1
370
    50
  0
POLYLINE
  5
5B
330
1F
100
AcDbEntity
  8
Layer 1
 62
     9
420
 12631999
370
    50
100
AcDb2dPolyline
 66
     1
 10
0.0
 20
0.0
 30
0.0
  0
VERTEX
  5
5C
330
5B
100
AcDbEntity
  8
Layer 1
 62
     9
420
 12631999
370
    50
100
AcDbVertex
100
AcDb2dVertex
 10
205.0697885524453
 20
-283.5081188154928
 30
0.0
  0
VERTEX
  5
5D
330
5B
100
AcDbEntity
  8
Layer 1
 62
     9
420
 12631999
370
    50
100
AcDbVertex
100
AcDb2dVertex
 10
192.0524866739871
 20
-283.5081188154928
 30
0.0
  0
SEQEND
  5
5E
330
5B
100
AcDbEntity
  8
Layer 1
370
    50
  0
POLYLINE
  5
5F
330
1F
100
AcDbEntity
  8
Layer 1
 62
     9
420
 12631999
370
    50
100
AcDb2dPolyline
 66
     1
 10
0.0
 20
0.0
 30
0.0
  0
VERTEX
  5
60
330
5F
100
AcDbEntity
  8
Layer 1
 62
     9
420
 12631999
370
    50
100
AcDbVertex
100
AcDb2dVertex
 10
192.0524866739871
 20
-285.9775648883997
 30
0.0
  0
VERTEX
  5
61
330
5F
100
AcDbEntity
  8
Layer 1
 62
     9
420
 12631999
370
    50
100
AcDbVertex
100
AcDb2dVertex
 10
192.0524866739871
 20
-275.006306568395
 30
0.0
  0
SEQEND
  5
62
330
5F
100
AcDbEntity
  8
Layer 1
370
    50
  0
POLYLINE
  5
63
330
1F
100
AcDbEntity
  8
Layer 1
 62
     9
420
 12631999
370
    50
100
AcDb2dPolyline
 66
     1
 10
0.0
 20
0.0
 30
0.0
  0
VERTEX
  5
64
330
63
100
AcDbEntity
  8
Layer 1
 62
     9
420
 12631999
370
    50
100
AcDbVertex
100
AcDb2dVertex
 10
160.8667727493663
 20
-292.0099310625907
 30
0.0
  0
VERTEX
  5
65
330
63
100
AcDbEntity
  8
Layer 1
 62
     9
420
 12631999
370
    50
100
AcDbVertex
100
AcDb2dVertex
 10
160.8667727493663
 20
-285.9775648883997
 30
0.0
  0
SEQEND
  5
66
330
63
100
AcDbEntity
  8
Layer 1
370
    50
  0
POLYLINE
  5
67
330
1F
100
AcDbEntity
  8
Layer 1
 62
     9
420
 12631999
370
    50
100
AcDb2dPolyline
 66
     1
 10
0.0
 20
0.0
 30
0.0
  0
VERTEX
  5
68
330
67
100
AcDbEntity
  8
Layer 1
 62
     9
420
 12631999
370
    50
100
AcDbVertex
100
AcDb2dVertex
 10
116.8752859486261
 20
-253.8396259434784
 30
0.0
  0
VERTEX
  5
69
330
67
100
AcDbEntity
  8
Layer 1
 62
     9
420
 12631999
370
    50
100
AcDbVertex
100
AcDb2dVertex
 10
116.9107704555331
 20
-275.0414465655262
 30
0.0
  0
SEQEND
  5
6A
330
67
100
AcDbEntity
  8
Layer 1
370
    50
  0
POLYLINE
  5
6B
330
1F
100
AcDbEntity
  8
Layer 1
 62
     9
420
 12631999
370
    50
100
AcDb2dPolyline
 66
     1
 10
0.0
 20
0.0
 30
0.0
  0
VERTEX
  5
6C
330
6B
100
AcDbEntity
  8
Layer 1
 62
     9
420
 12631999
370
    50
100
AcDbVertex
100
AcDb2dVertex
 10
10.05417329683539
 20
-275.006306568395
 30
0.0
  0
VERTEX
  5
6D
330
6B
100
AcDbEntity
  8
Layer 1
 62
     9
420
 12631999
370
    50
100
AcDbVertex
100
AcDb2dVertex
 10
205.0697885524453
 20
-275.0765865626574
 30
0.0
  0
SEQEND
  5
6E
330
6B
100
AcDbEntity
  8
Layer 1
370
    50
  0
POLYLINE
  5
6F
330
1F
100
AcDbEntity
  8
Layer 1
 62
     9
420
 12631999
370
    50
100
AcDb2dPolyline
 66
     1
 10
0.0
 20
0.0
 30
0.0
  0
VERTEX
  5
70
330
6F
100
AcDbEntity
  8
Layer 1
 62
     9
420
 12631999
370
    50
100
AcDbVertex
100
AcDb2dVertex
 10
10.0894855488545
 20
-236.8360014492826
 30
0.0
  0
VERTEX
  5
71
330
6F
100
AcDbEntity
  8
Layer 1
 62
     9
420
 12631999
370
    50
100
AcDbVertex
100
AcDb2dVertex
 10
10.0894855488545
 20
-292.0809000764047
 30
0.0
  0
SEQEND
  5
72
330
6F
100
AcDbEntity
  8
Layer 1
370
    50
  0
POLYLINE
  5
73
330
1F
100
AcDbEntity
  8
Layer 1
 62
     9
420
 12631999
370
    50
100
AcDb2dPolyline
 66
     1
 10
0.0
 20
0.0
 30
0.0
  0
VERTEX
  5
74
330
73
100
AcDbEntity
  8
Layer 1
 62
     9
420
 12631999
370
    50
100
AcDbVertex
100
AcDb2dVertex
 10
79.72783035385258
 20
-275.0414465655262
 30
0.0
  0
VERTEX
  5
75
330
73
100
AcDbEntity
  8
Layer 1
 62
     9
420
 12631999
370
    50
100
AcDbVertex
100
AcDb2dVertex
 10
79.72783035385258
 20
-253.8396259434784
 30
0.0
  0
SEQEND
  5
76
330
73
100
AcDbEntity
  8
Layer 1
370
    50
  0
POLYLINE
  5
77
330
1F
100
AcDbEntity
  8
Layer 1
 62
     9
420
 12631999
370
    50
100
AcDb2dPolyline
 66
     1
 10
0.0
 20
0.0
 30
0.0
  0
VERTEX
  5
78
330
77
100
AcDbEntity
  8
Layer 1
 62
     9
420
 12631999
370
    50
100
AcDbVertex
100
AcDb2dVertex
 10
210.0441652051662
 20
-4.990051847519608
 30
0.0
  0
VERTEX
  5
79
330
77
100
AcDbEntity
  8
Layer 1
 62
     9
420
 12631999
370
    50
100
AcDbVertex
100
AcDb2dVertex
 10
210.0441652051662
 20
-0.0158474496866238
 30
0.0
  0
SEQEND
  5
7A
330
77
100
AcDbEntity
  8
Layer 1
370
    50
  0
POLYLINE
  5
7B
330
1F
100
AcDbEntity
  8
Layer 1
 62
     9
420
 12631999
370
    50
100
AcDb2dPolyline
 66
     1
 10
0.0
 20
0.0
 30
0.0
  0
VERTEX
  5
7C
330
7B
100
AcDbEntity
  8
Layer 1
 62
     9
420
 12631999
370
    50
100
AcDbVertex
100
AcDb2dVertex
 10
205.0697885524453
 20
-253.8396259434784
 30
0.0
  0
VERTEX
  5
7D
330
7B
100
AcDbEntity
  8
Layer 1
 62
     9
420
 12631999
370
    50
100
AcDbVertex
100
AcDb2dVertex
 10
10.0894855488545
 20
-253.8396259434784
 30
0.0
  0
SEQEND
  5
7E
330
7B
100
AcDbEntity
  8
Layer 1
370
    50
  0
POLYLINE
  5
7F
330
1F
100
AcDbEntity
  8
Layer 1
 62
     9
420
 12631999
370
    50
100
AcDb2dPolyline
 66
     1
 10
0.0
 20
0.0
 30
0.0
  0
VERTEX
  5
80
330
7F
100
AcDbEntity
  8
Layer 1
 62
     9
420
 12631999
370
    50
100
AcDbVertex
100
AcDb2dVertex
 10
10.05417329683539
 20
-285.9775648883997
 30
0.0
  0
VERTEX
  5
81
330
7F
100
AcDbEntity
  8
Layer 1
 62
     9
420
 12631999
370
    50
100
AcDbVertex
100
AcDb2dVertex
 10
205.0697885524453
 20
-285.9775648883997
 30
0.0
  0
SEQEND
  5
82
330
7F
100
AcDbEntity
  8
Layer 1
370
    50
  0
POLYLINE
  5
83
330
1F
100
AcDbEntity
  8
Layer 1
 62
     9
420
 12631999
370
    50
100
AcDb2dPolyline
 66
     1
 10
0.0
 20
0.0
 30
0.0
  0
VERTEX
  5
84
330
83
100
AcDbEntity
  8
Layer 1
 62
     9
420
 12631999
370
    50
100
AcDbVertex
100
AcDb2dVertex
 10
10.05417329683539
 20
-292.0099310625907
 30
0.0
  0
VERTEX
  5
85
330
83
100
AcDbEntity
  8
Layer 1
 62
     9
420
 12631999
370
    50
100
AcDbVertex
100
AcDb2dVertex
 10
10.05417329683539
 20
-4.990051847519608
 30
0.0
  0
SEQEND
  5
86
330
83
100
AcDbEntity
  8
Layer 1
370
    50
  0
POLYLINE
  5
87
330
1F
100
AcDbEntity
  8
Layer 1
 62
     9
420
 12631999
370
    50
100
AcDb2dPolyline
 66
     1
 10
0.0
 20
0.0
 30
0.0
  0
VERTEX
  5
88
330
87
100
AcDbEntity
  8
Layer 1
 62
     9
420
 12631999
370
    50
100
AcDbVertex
100
AcDb2dVertex
 10
205.0697885524453
 20
-292.0099310625907
 30
0.0
  0
VERTEX
  5
89
330
87
100
AcDbEntity
  8
Layer 1
 62
     9
420
 12631999
370
    50
100
AcDbVertex
100
AcDb2dVertex
 10
180.9751193430371
 20
-292.0099310625907
 30
0.0
  0
SEQEND
  5
8A
330
87
100
AcDbEntity
  8
Layer 1
370
    50
  0
POLYLINE
  5
8B
330
1F
100
AcDbEntity
  8
Layer 1
 62
     9
420
 12631999
370
    50
100
AcDb2dPolyline
 66
     1
 10
0.0
 20
0.0
 30
0.0
  0
VERTEX
  5
8C
330
8B
100
AcDbEntity
  8
Layer 1
 62
     9
420
 12631999
370
    50
100
AcDbVertex
100
AcDb2dVertex
 10
10.05417329683539
 20
-4.990051847519608
 30
0.0
  0
VERTEX
  5
8D
330
8B
100
AcDbEntity
  8
Layer 1
 62
     9
420
 12631999
370
    50
100
AcDbVertex
100
AcDb2dVertex
 10
205.0697885524453
 20
-4.990051847519608
 30
0.0
  0
SEQEND
  5
8E
330
8B
100
AcDbEntity
  8
Layer 1
370
    50
  0
POLYLINE
  5
8F
330
1F
100
AcDbEntity
  8
Layer 1
 62
     9
420
 12631999
370
    50
100
AcDb2dPolyline
 66
     1
 10
0.0
 20
0.0
 30
0.0
  0
VERTEX
  5
90
330
8F
100
AcDbEntity
  8
Layer 1
 62
     9
420
 12631999
370
    50
100
AcDbVertex
100
AcDb2dVertex
 10
205.0697885524453
 20
-262.1299091882374
 30
0.0
  0
VERTEX
  5
91
330
8F
100
AcDbEntity
  8
Layer 1
 62
     9
420
 12631999
370
    50
100
AcDbVertex
100
AcDb2dVertex
 10
116.9107704555331
 20
-262.1299091882374
 30
0.0
  0
SEQEND
  5
92
330
8F
100
AcDbEntity
  8
Layer 1
370
    50
  0
POLYLINE
  5
93
330
1F
100
AcDbEntity
  8
Layer 1
 62
     9
420
 12631999
370
    50
100
AcDb2dPolyline
 66
     1
 10
0.0
 20
0.0
 30
0.0
  0
VERTEX
  5
94
330
93
100
AcDbEntity
  8
Layer 1
 62
     9
420
 12631999
370
    50
100
AcDbVertex
100
AcDb2dVertex
 10
210.0441652051662
 20
-296.9846522250874
 30
0.0
  0
VERTEX
  5
95
330
93
100
AcDbEntity
  8
Layer 1
 62
     9
420
 12631999
370
    50
100
AcDbVertex
100
AcDb2dVertex
 10
210.0441652051662
 20
-0.0158474496866238
 30
0.0
  0
SEQEND
  5
96
330
93
100
AcDbEntity
  8
Layer 1
370
    50
  0
POLYLINE
  5
97
330
1F
100
AcDbEntity
  8
Layer 1
 62
     9
420
 12631999
370
    50
100
AcDb2dPolyline
 66
     1
 10
0.0
 20
0.0
 30
0.0
  0
VERTEX
  5
98
330
97
100
AcDbEntity
  8
Layer 1
 62
     9
420
 12631999
370
    50
100
AcDbVertex
100
AcDb2dVertex
 10
0.0706245040382146
 20
-0.0158474496866238
 30
0.0
  0
VERTEX
  5
99
330
97
100
AcDbEntity
  8
Layer 1
 62
     9
420
 12631999
370
    50
100
AcDbVertex
100
AcDb2dVertex
 10
210.0441652051662
 20
-0.0158474496866238
 30
0.0
  0
SEQEND
  5
9A
330
97
100
AcDbEntity
  8
Layer 1
370
    50
  0
POLYLINE
  5
9B
330
1F
100
AcDbEntity
  8
Layer 1
 62
     9
420
 12631999
370
    50
100
AcDb2dPolyline
 66
     1
 10
0.0
 20
0.0
 30
0.0
  0
VERTEX
  5
9C
330
9B
100
AcDbEntity
  8
Layer 1
 62
     9
420
 12631999
370
    50
100
AcDbVertex
100
AcDb2dVertex
 10
0.0706245040382146
 20
-296.9846522250874
 30
0.0
  0
VERTEX
  5
9D
330
9B
100
AcDbEntity
  8
Layer 1
 62
     9
420
 12631999
370
    50
100
AcDbVertex
100
AcDb2dVertex
 10
0.0706245040382146
 20
-0.0158474496866238
 30
0.0
  0
SEQEND
  5
9E
330
9B
100
AcDbEntity
  8
Layer 1
370
    50
  0
POLYLINE
  5
9F
330
1F
100
AcDbEntity
  8
Layer 1
 62
     9
420
 12631999
370
    50
100
AcDb2dPolyline
 66
     1
 10
0.0
 20
0.0
 30
0.0
  0
VERTEX
  5
A0
330
9F
100
AcDbEntity
  8
Layer 1
 62
     9
420
 12631999
370
    50
100
AcDbVertex
100
AcDb2dVertex
 10
0.0706245040382146
 20
-296.9846522250874
 30
0.0
  0
VERTEX
  5
A1
330
9F
100
AcDbEntity
  8
Layer 1
 62
     9
420
 12631999
370
    50
100
AcDbVertex
100
AcDb2dVertex
 10
210.0441652051662
 20
-296.9846522250874
 30
0.0
  0
SEQEND
  5
A2
330
9F
100
AcDbEntity
  8
Layer 1
370
    50
  0
POLYLINE
  5
A3
330
1F
100
AcDbEntity
  8
Layer 1
 62
     9
420
 12631999
370
    50
100
AcDb2dPolyline
 66
     1
 10
0.0
 20
0.0
 30
0.0
  0
VERTEX
  5
A4
330
A3
100
AcDbEntity
  8
Layer 1
 62
     9
420
 12631999
370
    50
100
AcDbVertex
100
AcDb2dVertex
 10
10.05417329683539
 20
-292.0099310625907
 30
0.0
  0
VERTEX
  5
A5
330
A3
100
AcDbEntity
  8
Layer 1
 62
     9
420
 12631999
370
    50
100
AcDbVertex
100
AcDb2dVertex
 10
205.0697885524453
 20
-292.0099310625907
 30
0.0
  0
SEQEND
  5
A6
330
A3
100
AcDbEntity
  8
Layer 1
370
    50
  0
INSERT
  5
A8
330
1F
100
AcDbEntity
  8
Layer 1
100
AcDbBlockReference
  2
block 3
 10
0.0
 20
0.0
 30
0.0
  0
SPLINE
  5
AC
330
1F
100
AcDbEntity
  8
Layer 1
 62
    18
420
    65793
370
    35
100
AcDbSpline
210
0.0
220
0.0
230
1.0
 70
    11
 71
     3
 72
    17
 73
    13
 74
     0
 42
0.0000000001
 43
0.0000000001
 40
0.0
 40
0.0
 40
0.0
 40
0.0
 40
1.0
 40
1.0
 40
1.0
 40
2.0
 40
2.0
 40
2.0
 40
3.0
 40
3.0
 40
3.0
 40
4.0
 40
4.0
 40
4.0
 40
4.0
 10
147.7161455876749
 20
-267.1149656440079
 30
0.0
 10
147.7161455876749
 20
-267.4181342467086
 30
0.0
 10
147.4505285505361
 20
-267.6634252070754
 30
0.0
 10
147.1228997537539
 20
-267.6634252070754
 30
0.0
 10
146.7956154667475
 20
-267.6634252070754
 30
0.0
 10
146.5299984296087
 20
-267.4181342467086
 30
0.0
 10
146.5299984296087
 20
-267.1149656440079
 30
0.0
 10
146.5299984296087
 20
-266.8117970413073
 30
0.0
 10
146.7956154667475
 20
-266.5665060809404
 30
0.0
 10
147.1228997537539
 20
-266.5665060809404
 30
0.0
 10
147.4505285505361
 20
-266.5665060809404
 30
0.0
 10
147.7161455876749
 20
-266.8117970413073
 30
0.0
 10
147.7161455876749
 20
-267.1149656440079
 30
0.0
  0
INSERT
  5
AE
330
1F
100
AcDbEntity
  8
Layer 1
100
AcDbBlockReference
  2
block 4
 10
0.0
 20
0.0
 30
0.0
  0
ENDSEC
  0
SECTION
  2
OBJECTS
  0
DICTIONARY
  5
C
330
0
100
AcDbDictionary
281
     1
  3
ACAD_GROUP
350
D
  3
ACAD_IMAGE_DICT
350
40
  3
ACAD_IMAGE_VARS
350
42
  3
ACAD_LAYOUT
350
1A
  3
ACAD_MLINESTYLE
350
17
  3
ACAD_PLOTSETTINGS
350
19
  3
ACAD_PLOTSTYLENAME
350
E
  3
ACAD_TABLESTYLE
350
1B7
  3
ACAD_VISUALSTYLE
350
2A
  0
IMAGEDEF_REACTOR
  5
44
330
43
100
AcDbRasterImageDefReactor
 90
        2
330
43
  0
DICTIONARY
  5
D
102
{ACAD_REACTORS
330
C
102
}
330
C
100
AcDbDictionary
281
     1
  0
DICTIONARY
  5
40
102
{ACAD_REACTORS
330
C
102
}
330
C
100
AcDbDictionary
281
     1
  3
D:\dwv\New files\PDF\171.80.88 Bend_1.png
350
41
  0
RASTERVARIABLES
  5
42
102
{ACAD_REACTORS
330
C
102
}
330
C
100
AcDbRasterVariables
 90
        0
 70
     0
 71
     1
 72
     0
  0
DICTIONARY
  5
1A
102
{ACAD_REACTORS
330
C
102
}
330
C
100
AcDbDictionary
281
     1
  3
Layout1
350
1E
  3
Layout2
350
26
  3
Model
350
22
  0
DICTIONARY
  5
17
102
{ACAD_REACTORS
330
C
102
}
330
C
100
AcDbDictionary
281
     1
  3
Standard
350
18
  0
DICTIONARY
  5
19
102
{ACAD_REACTORS
330
C
102
}
330
C
100
AcDbDictionary
281
     1
  0
ACDBDICTIONARYWDFLT
  5
E
102
{ACAD_REACTORS
330
C
102
}
330
C
100
AcDbDictionary
281
     1
  3
Normal
350
F
100
AcDbDictionaryWithDefault
340
F
  0
DICTIONARY
  5
1B7
102
{ACAD_REACTORS
330
C
102
}
330
C
100
AcDbDictionary
281
     1
  0
DICTIONARY
  5
2A
102
{ACAD_REACTORS
330
C
102
}
330
C
100
AcDbDictionary
281
     1
  3
2dWireframe
350
2F
  3
3D Hidden
350
31
  3
3dWireframe
350
30
  3
Basic
350
32
  3
Brighten
350
36
  3
ColorChange
350
3A
  3
Conceptual
350
34
  3
Dim
350
35
  3
Facepattern
350
39
  3
Flat
350
2B
  3
FlatWithEdges
350
2C
  3
Gouraud
350
2D
  3
GouraudWithEdges
350
2E
  3
Linepattern
350
38
  3
Realistic
350
33
  3
Thicken
350
37
  0
IMAGEDEF
  5
41
102
{ACAD_REACTORS
330
40
330
44
102
}
330
40
100
AcDbRasterImageDef
 90
        0
  1
D:\dwv\New files\PDF\171.80.88 Bend_1.png
 10
251.0
 20
40.0
 11
0.3527777777777777
 21
0.3527777777777777
280
     1
281
     5
  0
LAYOUT
  5
1E
102
{ACAD_REACTORS
330
1A
102
}
330
1A
100
AcDbPlotSettings
  1

  2
none_device
  4

  6

 40
0.0
 41
0.0
 42
0.0
 43
0.0
 44
0.0
 45
0.0
 46
0.0
 47
0.0
 48
0.0
 49
0.0
140
0.0
141
0.0
142
1.0
143
1.0
 70
   688
 72
     0
 73
     0
 74
     5
  7

 75
    16
 76
     0
 77
     2
 78
   300
147
1.0
148
0.0
149
0.0
100
AcDbLayout
  1
Layout1
 70
     1
 71
     1
 10
0.0
 20
0.0
 11
12.0
 21
9.0
 12
0.0
 22
0.0
 32
0.0
 14
1.000000000000000E+20
 24
1.000000000000000E+20
 34
1.000000000000000E+20
 15
-1.000000000000000E+20
 25
-1.000000000000000E+20
 35
-1.000000000000000E+20
146
0.0
 13
0.0
 23
0.0
 33
0.0
 16
1.0
 26
0.0
 36
0.0
 17
0.0
 27
1.0
 37
0.0
 76
     0
330
1B
  0
LAYOUT
  5
26
102
{ACAD_REACTORS
330
1A
102
}
330
1A
100
AcDbPlotSettings
  1

  2
none_device
  4

  6

 40
0.0
 41
0.0
 42
0.0
 43
0.0
 44
0.0
 45
0.0
 46
0.0
 47
0.0
 48
0.0
 49
0.0
140
0.0
141
0.0
142
1.0
143
1.0
 70
   688
 72
     0
 73
     0
 74
     5
  7

 75
    16
 76
     0
 77
     2
 78
   300
147
1.0
148
0.0
149
0.0
100
AcDbLayout
  1
Layout2
 70
     1
 71
     2
 10
0.0
 20
0.0
 11
0.0
 21
0.0
 12
0.0
 22
0.0
 32
0.0
 14
0.0
 24
0.0
 34
0.0
 15
0.0
 25
0.0
 35
0.0
146
0.0
 13
0.0
 23
0.0
 33
0.0
 16
1.0
 26
0.0
 36
0.0
 17
0.0
 27
1.0
 37
0.0
 76
     0
330
23
  0
LAYOUT
  5
22
102
{ACAD_REACTORS
330
1A
102
}
330
1A
100
AcDbPlotSettings
  1

  2
none_device
  4

  6

 40
0.0
 41
0.0
 42
0.0
 43
0.0
 44
0.0
 45
0.0
 46
0.0
 47
0.0
 48
0.0
 49
0.0
140
0.0
141
0.0
142
1.0
143
1.0
 70
  1712
 72
     0
 73
     0
 74
     0
  7

 75
     0
 76
     0
 77
     2
 78
   300
147
1.0
148
0.0
149
0.0
100
AcDbLayout
  1
Model
 70
     1
 71
     0
 10
0.0
 20
0.0
 11
12.0
 21
9.0
 12
0.0
 22
0.0
 32
0.0
 14
1.000000000000000E+20
 24
1.000000000000000E+20
 34
1.000000000000000E+20
 15
-1.000000000000000E+20
 25
-1.000000000000000E+20
 35
-1.000000000000000E+20
146
0.0
 13
0.0
 23
0.0
 33
0.0
 16
1.0
 26
0.0
 36
0.0
 17
0.0
 27
1.0
 37
0.0
 76
     0
330
1F
331
29
  0
MLINESTYLE
  5
18
102
{ACAD_REACTORS
330
17
102
}
330
17
100
AcDbMlineStyle
  2
Standard
 70
     0
  3

 62
   256
 51
90.0
 52
90.0
 71
     2
 49
0.5
 62
   256
  6
BYLAYER
 49
-0.5
 62
   256
  6
BYLAYER
  0
ACDBPLACEHOLDER
  5
F
102
{ACAD_REACTORS
330
E
102
}
330
E
  0
VISUALSTYLE
  5
2F
102
{ACAD_REACTORS
330
2A
102
}
330
2A
100
AcDbVisualStyle
  2
2dWireframe
 70
     4
 71
     0
 72
     2
 73
     0
 90
        0
 40
-0.6
 41
-30.0
 62
     5
 63
     7
421
 16777215
 74
     1
 91
        4
 64
     7
 65
   257
 75
     1
175
     1
 42
1.0
 92
        0
 66
   257
 43
1.0
 76
     1
 77
     6
 78
     2
 67
     7
 79
     5
170
     0
171
     0
290
     0
174
     0
 93
        1
 44
0.0
173
     0
291
     0
 45
0.0
1001
ACAD
1000
AcDbSavedByObjectVersion
1070
     0
  0
VISUALSTYLE
  5
31
102
{ACAD_REACTORS
330
2A
102
}
330
2A
100
AcDbVisualStyle
  2
3D Hidden
 70
     6
 71
     1
 72
     2
 73
     2
 90
        0
 40
-0.6
 41
-30.0
 62
     5
 63
     7
421
 16777215
 74
     2
 91
        2
 64
     7
 65
   257
 75
     2
175
     1
 42
40.0
 92
        0
 66
   257
 43
1.0
 76
     1
 77
     6
 78
     2
 67
     7
 79
     3
170
     0
171
     0
290
     0
174
     0
 93
        1
 44
0.0
173
     0
291
     0
 45
0.0
1001
ACAD
1000
AcDbSavedByObjectVersion
1070
     0
  0
VISUALSTYLE
  5
30
102
{ACAD_REACTORS
330
2A
102
}
330
2A
100
AcDbVisualStyle
  2
3dWireframe
 70
     5
 71
     0
 72
     2
 73
     0
 90
        0
 40
-0.6
 41
-30.0
 62
     5
 63
     7
421
 16777215
 74
     1
 91
        4
 64
     7
 65
   257
 75
     1
175
     1
 42
1.0
 92
        0
 66
   257
 43
1.0
 76
     1
 77
     6
 78
     2
 67
     7
 79
     5
170
     0
171
     0
290
     0
174
     0
 93
        1
 44
0.0
173
     0
291
     0
 45
0.0
1001
ACAD
1000
AcDbSavedByObjectVersion
1070
     0
  0
VISUALSTYLE
  5
32
102
{ACAD_REACTORS
330
2A
102
}
330
2A
100
AcDbVisualStyle
  2
Basic
 70
     7
 71
     1
 72
     0
 73
     1
 90
        0
 40
-0.6
 41
-30.0
 62
     5
 63
     7
421
 16777215
 74
     0
 91
        4
 64
     7
 65
   257
 75
     1
175
     1
 42
1.0
 92
        8
 66
     7
 43
1.0
 76
     1
 77
     6
 78
     2
 67
     7
 79
     5
170
     0
171
     0
290
     0
174
     0
 93
        1
 44
0.0
173
     0
291
     1
 45
0.0
1001
ACAD
1000
AcDbSavedByObjectVersion
1070
     0
  0
VISUALSTYLE
  5
36
102
{ACAD_REACTORS
330
2A
102
}
330
2A
100
AcDbVisualStyle
  2
Brighten
 70
    12
 71
     2
 72
     2
 73
     0
 90
        0
 40
-0.6
 41
-30.0
 62
     5
 63
     7
421
 16777215
 74
     1
 91
        4
 64
     7
 65
   257
 75
     1
175
     1
 42
1.0
 92
        8
 66
     7
 43
1.0
 76
     1
 77
     6
 78
     2
 67
     7
 79
     5
170
     0
171
     0
290
     0
174
     0
 93
        1
 44
50.0
173
     0
291
     1
 45
0.0
1001
ACAD
1000
AcDbSavedByObjectVersion
1070
     0
  0
VISUALSTYLE
  5
3A
102
{ACAD_REACTORS
330
2A
102
}
330
2A
100
AcDbVisualStyle
  2
ColorChange
 70
    16
 71
     2
 72
     2
 73
     3
 90
        0
 40
-0.6
 41
-30.0
 62
     5
 63
     8
421
  8421504
 74
     1
 91
        4
 64
     7
 65
   257
 75
     1
175
     1
 42
1.0
 92
        8
 66
     8
424
  8421504
 43
1.0
 76
     1
 77
     6
 78
     2
 67
     7
 79
     5
170
     0
171
     0
290
     0
174
     0
 93
        1
 44
0.0
173
     0
291
     1
 45
0.0
1001
ACAD
1000
AcDbSavedByObjectVersion
1070
     0
  0
VISUALSTYLE
  5
34
102
{ACAD_REACTORS
330
2A
102
}
330
2A
100
AcDbVisualStyle
  2
Conceptual
 70
     9
 71
     3
 72
     2
 73
     0
 90
        0
 40
-0.6
 41
-30.0
 62
     5
 63
     7
421
 16777215
 74
     2
 91
        2
 64
     7
 65
   257
 75
     1
175
     1
 42
40.0
 92
        8
 66
     7
 43
1.0
 76
     1
 77
     6
 78
     2
 67
     7
 79
     3
170
     0
171
     0
290
     0
174
     0
 93
        1
 44
0.0
173
     0
291
     0
 45
0.0
1001
ACAD
1000
AcDbSavedByObjectVersion
1070
     0
  0
VISUALSTYLE
  5
35
102
{ACAD_REACTORS
330
2A
102
}
330
2A
100
AcDbVisualStyle
  2
Dim
 70
    11
 71
     2
 72
     2
 73
     0
 90
        0
 40
-0.6
 41
-30.0
 62
     5
 63
     7
421
 16777215
 74
     1
 91
        4
 64
     7
 65
   257
 75
     1
175
     1
 42
1.0
 92
        8
 66
     7
 43
1.0
 76
     1
 77
     6
 78
     2
 67
     7
 79
     5
170
     0
171
     0
290
     0
174
     0
 93
        1
 44
-50.0
173
     0
291
     1
 45
0.0
1001
ACAD
1000
AcDbSavedByObjectVersion
1070
     0
  0
VISUALSTYLE
  5
39
102
{ACAD_REACTORS
330
2A
102
}
330
2A
100
AcDbVisualStyle
  2
Facepattern
 70
    15
 71
     2
 72
     2
 73
     0
 90
        0
 40
-0.6
 41
-30.0
 62
     5
 63
     7
421
 16777215
 74
     1
 91
        4
 64
     7
 65
   257
 75
     1
175
     1
 42
1.0
 92
        8
 66
     7
 43
1.0
 76
     1
 77
     6
 78
     2
 67
     7
 79
     5
170
     0
171
     0
290
     0
174
     0
 93
        1
 44
0.0
173
     0
291
     1
 45
0.0
1001
ACAD
1000
AcDbSavedByObjectVersion
1070
     0
  0
VISUALSTYLE
  5
2B
102
{ACAD_REACTORS
330
2A
102
}
330
2A
100
AcDbVisualStyle
  2
Flat
 70
     0
 71
     2
 72
     1
 73
     1
 90
        2
 40
-0.6
 41
30.0
 62
     5
 63
     7
421
 16777215
 74
     0
 91
        4
 64
     7
 65
   257
 75
     1
175
     1
 42
1.0
 92
        8
 66
     7
 43
1.0
 76
     1
 77
     6
 78
     2
 67
     7
 79
     5
170
     0
171
     0
290
     0
174
     0
 93
       13
 44
0.0
173
     0
291
     1
 45
0.0
1001
ACAD
1000
AcDbSavedByObjectVersion
1070
     0
  0
VISUALSTYLE
  5
2C
102
{ACAD_REACTORS
330
2A
102
}
330
2A
100
AcDbVisualStyle
  2
FlatWithEdges
 70
     1
 71
     2
 72
     1
 73
     1
 90
        2
 40
-0.6
 41
30.0
 62
     5
 63
     7
421
 16777215
 74
     1
 91
        4
 64
     7
 65
   257
 75
     1
175
     1
 42
1.0
 92
        0
 66
   257
 43
1.0
 76
     1
 77
     6
 78
     2
 67
     7
 79
     5
170
     0
171
     0
290
     0
174
     0
 93
       13
 44
0.0
173
     0
291
     1
 45
0.0
1001
ACAD
1000
AcDbSavedByObjectVersion
1070
     0
  0
VISUALSTYLE
  5
2D
102
{ACAD_REACTORS
330
2A
102
}
330
2A
100
AcDbVisualStyle
  2
Gouraud
 70
     2
 71
     2
 72
     2
 73
     1
 90
        2
 40
-0.6
 41
30.0
 62
     5
 63
     7
421
 16777215
 74
     0
 91
        4
 64
     7
 65
   257
 75
     1
175
     1
 42
1.0
 92
        0
 66
     7
 43
1.0
 76
     1
 77
     6
 78
     2
 67
     7
 79
     5
170
     0
171
     0
290
     0
174
     0
 93
       13
 44
0.0
173
     0
291
     1
 45
0.0
1001
ACAD
1000
AcDbSavedByObjectVersion
1070
     0
  0
VISUALSTYLE
  5
2E
102
{ACAD_REACTORS
330
2A
102
}
330
2A
100
AcDbVisualStyle
  2
GouraudWithEdges
 70
     3
 71
     2
 72
     2
 73
     1
 90
        2
 40
-0.6
 41
30.0
 62
     5
 63
     7
421
 16777215
 74
     1
 91
        4
 64
     7
 65
   257
 75
     1
175
     1
 42
1.0
 92
        0
 66
   257
 43
1.0
 76
     1
 77
     6
 78
     2
 67
     7
 79
     5
170
     0
171
     0
290
     0
174
     0
 93
       13
 44
0.0
173
     0
291
     1
 45
0.0
1001
ACAD
1000
AcDbSavedByObjectVersion
1070
     0
  0
VISUALSTYLE
  5
38
102
{ACAD_REACTORS
330
2A
102
}
330
2A
100
AcDbVisualStyle
  2
Linepattern
 70
    14
 71
     2
 72
     2
 73
     0
 90
        0
 40
-0.6
 41
-30.0
 62
     5
 63
     7
421
 16777215
 74
     1
 91
        4
 64
     7
 65
   257
 75
     7
175
     7
 42
1.0
 92
        8
 66
     7
 43
1.0
 76
     1
 77
     6
 78
     2
 67
     7
 79
     5
170
     0
171
     0
290
     0
174
     0
 93
        1
 44
0.0
173
     0
291
     1
 45
0.0
1001
ACAD
1000
AcDbSavedByObjectVersion
1070
     0
  0
VISUALSTYLE
  5
33
102
{ACAD_REACTORS
330
2A
102
}
330
2A
100
AcDbVisualStyle
  2
Realistic
 70
     8
 71
     2
 72
     2
 73
     0
 90
        0
 40
-0.6
 41
-30.0
 62
     5
 63
     7
421
 16777215
 74
     1
 91
        0
 64
     7
 65
   257
 75
     1
175
     1
 42
1.0
 92
        8
 66
     8
424
  7895160
 43
1.0
 76
     1
 77
     6
 78
     2
 67
     7
 79
     5
170
     0
171
     0
290
     0
174
     0
 93
       13
 44
0.0
173
     0
291
     0
 45
0.0
1001
ACAD
1000
AcDbSavedByObjectVersion
1070
     0
  0
VISUALSTYLE
  5
37
102
{ACAD_REACTORS
330
2A
102
}
330
2A
100
AcDbVisualStyle
  2
Thicken
 70
    13
 71
     2
 72
     2
 73
     0
 90
        0
 40
-0.6
 41
-30.0
 62
     5
 63
     7
421
 16777215
 74
     1
 91
        4
 64
     7
 65
   257
 75
     1
175
     1
 42
1.0
 92
       12
 66
     7
 43
1.0
 76
     1
 77
     6
 78
     2
 67
     7
 79
     5
170
     0
171
     0
290
     0
174
     0
 93
        1
 44
0.0
173
     0
291
     1
 45
0.0
1001
ACAD
1000
AcDbSavedByObjectVersion
1070
     0
  0
ENDSEC
  0
EOF
