  0
SECTION
  2
HEADER
  9
$ACADVER
  1
AC1009
  9
$INSBASE
 10
0.0
 20
0.0
 30
0.0
  9
$EXTMIN
 10
-74.800000000000182
 20
-126.6999999999998
 30
0.0
  9
$EXTMAX
 10
45.599321298888754
 20
0.0
 30
0.0
  9
$LIMMIN
 10
0.0
 20
0.0
  9
$LIMMAX
 10
420.0
 20
297.0
  9
$ORTHOMODE
 70
     0
  9
$REGENMODE
 70
     1
  9
$FILLMODE
 70
     1
  9
$QTEXTMODE
 70
     0
  9
$MIRRTEXT
 70
     0
  9
$DRAGMODE
 70
     2
  9
$LTSCALE
 40
1.0
  9
$OSMODE
 70
   127
  9
$ATTMODE
 70
     1
  9
$TEXTSIZE
 40
2.5
  9
$TRACEWID
 40
1.0
  9
$TEXTSTYLE
  7
STANDARD
  9
$CLAYER
  8
0
  9
$CELTYPE
  6
CONTINUOUS
  9
$CECOLOR
 62
   256
  9
$DIMSCALE
 40
1.0
  9
$DIMASZ
 40
2.5
  9
$DIMEXO
 40
0.625
  9
$DIMDLI
 40
3.75
  9
$DIMRND
 40
0.0
  9
$DIMDLE
 40
0.0
  9
$DIMEXE
 40
1.25
  9
$DIMTP
 40
0.0
  9
$DIMTM
 40
0.0
  9
$DIMTXT
 40
2.5
  9
$DIMCEN
 40
2.5
  9
$DIMTSZ
 40
0.0
  9
$DIMTOL
 70
     0
  9
$DIMLIM
 70
     0
  9
$DIMTIH
 70
     0
  9
$DIMTOH
 70
     0
  9
$DIMSE1
 70
     0
  9
$DIMSE2
 70
     0
  9
$DIMTAD
 70
     1
  9
$DIMZIN
 70
     8
  9
$DIMBLK
  1

  9
$DIMASO
 70
     1
  9
$DIMSHO
 70
     1
  9
$DIMPOST
  1

  9
$DIMAPOST
  1

  9
$DIMALT
 70
     0
  9
$DIMALTD
 70
     3
  9
$DIMALTF
 40
0.03937007874016
  9
$DIMLFAC
 40
1.0
  9
$DIMTOFL
 70
     1
  9
$DIMTVP
 40
0.0
  9
$DIMTIX
 70
     0
  9
$DIMSOXD
 70
     0
  9
$DIMSAH
 70
     0
  9
$DIMBLK1
  1

  9
$DIMBLK2
  1

  9
$DIMSTYLE
  2
STANDARD
  9
$DIMCLRD
 70
     0
  9
$DIMCLRE
 70
     0
  9
$DIMCLRT
 70
     0
  9
$DIMTFAC
 40
1.0
  9
$DIMGAP
 40
0.625
  9
$LUNITS
 70
     2
  9
$LUPREC
 70
     4
  9
$SKETCHINC
 40
1.0
  9
$FILLETRAD
 40
3.0
  9
$AUNITS
 70
     0
  9
$AUPREC
 70
     0
  9
$MENU
  1
.
  9
$ELEVATION
 40
0.0
  9
$PELEVATION
 40
0.0
  9
$THICKNESS
 40
0.0
  9
$LIMCHECK
 70
     0
  9
$BLIPMODE
 70
     0
  9
$CHAMFERA
 40
0.0
  9
$CHAMFERB
 40
0.0
  9
$SKPOLY
 70
     0
  9
$TDCREATE
 40
2455559.2317578131
  9
$TDUPDATE
 40
2457377.73390191
  9
$TDINDWG
 40
2.9209517824
  9
$TDUSRTIMER
 40
2.9209478009000001
  9
$USRTIMER
 70
     1
  9
$ANGBASE
 50
0.0
  9
$ANGDIR
 70
     0
  9
$PDMODE
 70
     0
  9
$PDSIZE
 40
0.0
  9
$PLINEWID
 40
0.0
  9
$COORDS
 70
     2
  9
$SPLFRAME
 70
     0
  9
$SPLINETYPE
 70
     6
  9
$SPLINESEGS
 70
     8
  9
$ATTDIA
 70
     1
  9
$ATTREQ
 70
     1
  9
$HANDLING
 70
     1
  9
$HANDSEED
  5
272
  9
$SURFTAB1
 70
     6
  9
$SURFTAB2
 70
     6
  9
$SURFTYPE
 70
     6
  9
$SURFU
 70
     6
  9
$SURFV
 70
     6
  9
$UCSNAME
  2

  9
$UCSORG
 10
0.0
 20
0.0
 30
0.0
  9
$UCSXDIR
 10
1.0
 20
0.0
 30
0.0
  9
$UCSYDIR
 10
0.0
 20
1.0
 30
0.0
  9
$PUCSNAME
  2

  9
$PUCSORG
 10
0.0
 20
0.0
 30
0.0
  9
$PUCSXDIR
 10
1.0
 20
0.0
 30
0.0
  9
$PUCSYDIR
 10
0.0
 20
1.0
 30
0.0
  9
$USERI1
 70
     0
  9
$USERI2
 70
     0
  9
$USERI3
 70
     0
  9
$USERI4
 70
     0
  9
$USERI5
 70
     0
  9
$USERR1
 40
0.0
  9
$USERR2
 40
0.0
  9
$USERR3
 40
0.0
  9
$USERR4
 40
0.0
  9
$USERR5
 40
0.0
  9
$WORLDVIEW
 70
     1
  9
$SHADEDGE
 70
     3
  9
$SHADEDIF
 70
    70
  9
$TILEMODE
 70
     1
  9
$MAXACTVP
 70
    64
  9
$PLIMCHECK
 70
     0
  9
$PEXTMIN
 10
25.699999999999989
 20
19.5
 30
0.0
  9
$PEXTMAX
 10
231.30000000000001
 20
175.5
 30
0.0
  9
$PLIMMIN
 10
-20.0
 20
-7.5
  9
$PLIMMAX
 10
277.0
 20
202.5
  9
$UNITMODE
 70
     0
  9
$VISRETAIN
 70
     1
  9
$PLINEGEN
 70
     0
  9
$PSLTSCALE
 70
     1
  0
ENDSEC
  0
SECTION
  2
TABLES
  0
TABLE
  2
VPORT
 70
     1
  0
VPORT
  2
*ACTIVE
 70
     0
 10
0.0
 20
0.0
 11
1.0
 21
1.0
 12
16458.127776663969
 22
5824.9361560382022
 13
0.0
 23
0.0
 14
10.0
 24
10.0
 15
10.0
 25
10.0
 16
-38962.971254248441
 26
-38962.97125424847
 36
38962.97125424847
 17
30714.317967474461
 27
7339.7553224022467
 37
0.0
 40
45085.451174768772
 41
1.56986301369863
 42
50.0
 43
0.0
 44
0.0
 50
0.0
 51
0.0000000000000313
 71
     0
 72
  1000
 73
     1
 74
     3
 75
     0
 76
     0
 77
     0
 78
     0
  0
ENDTAB
  0
TABLE
  2
LTYPE
 70
     3
  0
LTYPE
  2
CONTINUOUS
 70
     0
  3
Solid line
 72
    65
 73
     0
 40
0.0
  0
ENDTAB
  0
TABLE
  2
LAYER
 70
     9
  0
LAYER
  2
0
 70
     0
 62
     7
  6
CONTINUOUS
  0
ENDTAB
  0
TABLE
  2
STYLE
 70
     4
  0
STYLE
  2
STANDARD
 70
     0
 40
0.0
 41
1.0
 50
0.0
 71
     0
 42
2.5
  3
txt
  4

  0
STYLE
  2
INSCRIPTIONS
 70
     0
 40
0.0
 41
0.9
 50
0.0
 71
     0
 42
2.5
  3
txt
  4

  0
ENDTAB
  0
TABLE
  2
VIEW
 70
     1
  0
ENDTAB
  0
TABLE
  2
UCS
 70
     0
  0
ENDTAB
  0
TABLE
  2
APPID
 70
     7
  0
APPID
  2
ACAD
 70
     0
  0
APPID
  2
ACAD_PSEXT
 70
     0
  0
APPID
  2
ACAECLAYERSTANDARD
 70
     0
  0
APPID
  2
ACAD_NAV_VCDISPLAY
 70
     0
  0
APPID
  2
REVIT
 70
     0
  0
APPID
  2
ACAD_EXEMPT_FROM_CAD_STANDARDS
 70
     0
  0
APPID
  2
ACAD_MLEADERVER
 70
     0
  0
ENDTAB
  0
TABLE
  2
DIMSTYLE
 70
     1
  0
DIMSTYLE
  2
STANDARD
 70
     0
  3

  4

  5

  6

  7

 40
1.0
 41
0.18
 42
0.0625
 43
0.38
 44
0.18
 45
0.0
 46
0.0
 47
0.0
 48
0.0
140
0.18
141
0.09
142
0.0
143
25.399999999999999
144
1.0
145
0.0
146
1.0
147
0.09
 71
     0
 72
     0
 73
     1
 74
     1
 75
     0
 76
     0
 77
     0
 78
     0
170
     0
171
     2
172
     0
173
     0
174
     0
175
     0
176
     0
177
     0
178
     0
  0
ENDTAB
  0
ENDSEC
  0
SECTION
  2
BLOCKS
  0
BLOCK
  8
0
  2
$MODEL_SPACE
 70
     0
 10
0.0
 20
0.0
 30
0.0
  3
$MODEL_SPACE
  1

  0
ENDBLK
  5
D
  8
0
  0
BLOCK
 67
     1
  8
0
  2
$PAPER_SPACE
 70
     0
 10
0.0
 20
0.0
 30
0.0
  3
$PAPER_SPACE
  1

  0
ENDBLK
  5
17A
 67
     1
  8
0
  0
BLOCK
  8
0
  2
*U2
 70
     1
 10
0.0
 20
0.0
 30
0.0
  3
*U2
  1

  0
TEXT
  5
229
  8
0
  6
CONTINUOUS
 10
-17.961356499869002
 20
-28.68896319012201
 30
0.0
 40
8.8000000000000007
  1
75
 41
1.1999999999999991
  7
INSCRIPTIONS
  0
ENDBLK
  5
22B
  8
0
  0
BLOCK
  8
0
  2
*U3
 70
     1
 10
0.0
 20
0.0
 30
0.0
  3
*U3
  1

  0
TEXT
  5
22D
  8
0
  6
CONTINUOUS
 10
1.5476377216864421
 20
-33.552086487668568
 30
0.0
 40
8.0999999999999996
  1
PP-MD
 41
0.6
  7
INSCRIPTIONS
  0
ENDBLK
  5
22F
  8
0
  0
BLOCK
  8
0
  2
*U4
 70
     1
 10
0.0
 20
0.0
 30
0.0
  3
*U4
  1

  0
TEXT
  5
231
  8
0
  6
CONTINUOUS
 10
-17.961356499869002
 20
-39.426451961439668
 30
0.0
 40
8.8000000000000007
  1
110
 41
0.8
  7
INSCRIPTIONS
  0
ENDBLK
  5
233
  8
0
  0
ENDSEC
  0
SECTION
  2
ENTITIES
  0
LINE
  5
4B
  8
0
 10
40.0
 20
-42.699999999999811
 30
0.0
 11
-40.000000000001819
 21
-42.699999999999811
 31
0.0
  0
LINE
  5
4E
  8
0
 10
-37.700000000000728
 20
-52.699999999999811
 30
0.0
 11
37.699999999998909
 21
-52.699999999999811
 31
0.0
  0
LINE
  5
4F
  8
0
 10
37.699999999998909
 20
-52.699999999999811
 30
0.0
 11
40.0
 21
-42.699999999999811
 31
0.0
  0
LINE
  5
50
  8
0
 10
-37.700000000000728
 20
-52.699999999999811
 30
0.0
 11
-40.000000000001819
 21
-42.699999999999811
 31
0.0
  0
POLYLINE
  5
51
  8
0
 66
     1
 10
0.0
 20
0.0
 30
0.0
 70
     1
  0
VERTEX
  5
20F
  8
0
 10
-22.98393167454924
 20
-21.525371376104879
 30
0.0
  0
VERTEX
  5
210
  8
0
 10
-30.141092311156171
 20
-21.525371376104879
 30
0.0
  0
VERTEX
  5
211
  8
0
 10
-30.141092311156171
 20
-23.882446110547789
 30
0.0
  0
VERTEX
  5
212
  8
0
 10
-22.98393167454924
 20
-23.882446110547789
 30
0.0
  0
SEQEND
  5
213
  8
0
  0
POLYLINE
  5
53
  8
0
 66
     1
 10
0.0
 20
0.0
 30
0.0
 70
     1
  0
VERTEX
  5
214
  8
0
 10
-22.728100430413178
 20
-30.977552272389399
 30
0.0
  0
VERTEX
  5
215
  8
0
 10
-28.884588191850529
 20
-30.977552272389399
 30
0.0
  0
VERTEX
  5
216
  8
0
 10
-28.884588191851439
 20
-29.416081939439209
 30
0.0
  0
VERTEX
  5
217
  8
0
 10
-22.728100430413178
 20
-29.416081939439209
 30
0.0
  0
SEQEND
  5
218
  8
0
  0
POLYLINE
  5
54
  8
0
 66
     1
 10
0.0
 20
0.0
 30
0.0
 70
     1
  0
VERTEX
  5
219
  8
0
 10
22.983931674545602
 20
-21.52537137610307
 30
0.0
  0
VERTEX
  5
21A
  8
0
 10
30.14109231115253
 20
-21.52537137610307
 30
0.0
  0
VERTEX
  5
21B
  8
0
 10
30.14109231115253
 20
-23.88244611054597
 30
0.0
  0
VERTEX
  5
21C
  8
0
 10
22.983931674545602
 20
-23.88244611054597
 30
0.0
  0
SEQEND
  5
21D
  8
0
  0
POLYLINE
  5
55
  8
0
 66
     1
 10
0.0
 20
0.0
 30
0.0
 70
     1
  0
VERTEX
  5
21E
  8
0
 10
22.37818142126525
 20
-38.126045879220328
 30
0.0
  0
VERTEX
  5
21F
  8
0
 10
26.636844038477651
 20
-38.126045879219419
 30
0.0
  0
VERTEX
  5
220
  8
0
 10
26.636844038477651
 20
-36.984838338820737
 30
0.0
  0
VERTEX
  5
221
  8
0
 10
22.37818142126525
 20
-36.984838338820737
 30
0.0
  0
SEQEND
  5
222
  8
0
  0
LINE
  5
56
  8
0
 10
22.72810043040954
 20
-30.97755227238849
 30
0.0
 11
28.452453732548751
 21
-30.977552272387591
 31
0.0
  0
POLYLINE
  5
57
  8
0
 66
     1
 10
0.0
 20
0.0
 30
0.0
 70
     1
  0
VERTEX
  5
223
  8
0
 10
22.72810043040954
 20
-30.97755227238849
 30
0.0
  0
VERTEX
  5
224
  8
0
 10
28.884588191847801
 20
-30.977552272387591
 30
0.0
  0
VERTEX
  5
225
  8
0
 10
28.884588191847801
 20
-29.4160819394383
 30
0.0
  0
VERTEX
  5
226
  8
0
 10
22.72810043040954
 20
-29.4160819394383
 30
0.0
  0
SEQEND
  5
227
  8
0
  0
INSERT
  5
58
  8
0
  6
CONTINUOUS
  2
*U2
 10
0.0
 20
0.0
 30
0.0
  0
INSERT
  5
5A
  8
0
  6
CONTINUOUS
  2
*U3
 10
0.0
 20
0.0
 30
0.0
  0
LINE
  5
5B
  8
0
 10
37.699999999997999
 20
-16.274089938300669
 30
0.0
 11
-37.700000000001637
 21
-16.274089938300669
 31
0.0
  0
LINE
  5
5C
  8
0
 10
-45.000000000000909
 20
-16.274089938300669
 30
0.0
 11
44.999999999997272
 21
-16.274089938300669
 31
0.0
  0
LINE
  5
5D
  8
0
 10
-40.000000000000909
 20
0.0
 30
0.0
 11
-40.000000000000909
 21
-1.5
 31
0.0
  0
LINE
  5
5E
  8
0
 10
-39.999999999999091
 20
-13.93425172568277
 30
0.0
 11
-40.0
 21
-14.274089938300669
 31
0.0
  0
LINE
  5
5F
  8
0
 10
40.000000000000909
 20
0.0
 30
0.0
 11
40.000000000000909
 21
-1.5
 31
0.0
  0
LINE
  5
60
  8
0
 10
39.999999999999091
 20
-13.93425172568277
 30
0.0
 11
40.0
 21
-14.274089938300669
 31
0.0
  0
LINE
  5
61
  8
0
 10
40.0
 20
-18.299766489235481
 30
0.0
 11
40.0
 21
-42.699999999999811
 31
0.0
  0
LINE
  5
62
  8
0
 10
-45.0
 20
-14.274089938300669
 30
0.0
 11
44.999999999999091
 21
-14.274089938300669
 31
0.0
  0
LINE
  5
63
  8
0
 10
-45.000000000000909
 20
-14.274089938300669
 30
0.0
 11
-45.000000000001819
 21
-16.274089938300669
 31
0.0
  0
LINE
  5
64
  8
0
 10
44.999999999999091
 20
-14.274089938300669
 30
0.0
 11
44.999999999998167
 21
-16.274089938300669
 31
0.0
  0
LINE
  5
65
  8
0
 10
-43.876028035110721
 20
-1.5
 30
0.0
 11
0.0
 21
-1.5
 31
0.0
  0
LINE
  5
66
  8
0
 10
0.0
 20
-13.93425172568277
 30
0.0
 11
-45.599321298888754
 21
-13.93425172568277
 31
0.0
  0
LINE
  5
67
  8
0
 10
-45.599321298888754
 20
-13.93425172568277
 30
0.0
 11
-43.876028035110721
 21
-1.5
 31
0.0
  0
LINE
  5
68
  8
0
 10
43.876028035110721
 20
-1.5
 30
0.0
 11
0.0
 21
-1.5
 31
0.0
  0
LINE
  5
69
  8
0
 10
0.0
 20
-13.93425172568277
 30
0.0
 11
45.599321298888754
 21
-13.93425172568277
 31
0.0
  0
LINE
  5
6A
  8
0
 10
45.599321298888754
 20
-13.93425172568277
 30
0.0
 11
43.876028035110721
 21
-1.5
 31
0.0
  0
LINE
  5
6B
  8
0
 10
-39.999999999999091
 20
0.0
 30
0.0
 11
-40.000000000000909
 21
-1.5
 31
0.0
  0
LINE
  5
6C
  8
0
 10
-40.0
 20
-18.299766489231839
 30
0.0
 11
-40.0
 21
-42.699999999999811
 31
0.0
  0
LINE
  5
6D
  8
0
 10
-40.0
 20
0.0
 30
0.0
 11
40.0
 21
0.0
 31
0.0
  0
ARC
  5
6E
  8
0
 10
42.025676550934797
 20
-18.299766489235481
 30
0.0
 40
2.025676550934576
 50
90.0
 51
180.0
  0
ARC
  5
6F
  8
0
 10
-42.025676550936623
 20
-18.299766489231839
 30
0.0
 40
2.025676550934576
 50
0.0
 51
90.0
  0
LINE
  5
70
  8
0
 10
-0.999999999998181
 20
-1.5
 30
0.0
 11
-0.9999999999990905
 21
-13.93425172568277
 31
0.0
  0
LINE
  5
72
  8
0
 10
1.0
 20
-1.5
 30
0.0
 11
1.0
 21
-13.93425172568277
 31
0.0
  0
LINE
  5
73
  8
0
 10
-11.561255671073919
 20
-1.5
 30
0.0
 11
-11.999999999999091
 21
-13.93425172568277
 31
0.0
  0
LINE
  5
74
  8
0
 10
11.561255671073919
 20
-1.5
 30
0.0
 11
11.999999999999091
 21
-13.93425172568277
 31
0.0
  0
LINE
  5
75
  8
0
 10
-32.114314359387208
 20
-1.5
 30
0.0
 11
-32.999999999999091
 21
-13.93425172568277
 31
0.0
  0
LINE
  5
76
  8
0
 10
-33.739249474383541
 20
-1.5
 30
0.0
 11
-34.624935114995417
 21
-13.93425172568277
 31
0.0
  0
LINE
  5
77
  8
0
 10
32.114314359387208
 20
-1.5
 30
0.0
 11
32.999999999999091
 21
-13.93425172568277
 31
0.0
  0
LINE
  5
78
  8
0
 10
33.739249474383541
 20
-1.5
 30
0.0
 11
34.624935114995417
 21
-13.93425172568277
 31
0.0
  0
INSERT
  5
79
  8
0
  6
CONTINUOUS
  2
*U4
 10
0.0
 20
0.0
 30
0.0
  0
POLYLINE
  5
7A
  8
0
 66
     1
 10
0.0
 20
0.0
 30
0.0
 70
     1
  0
VERTEX
  5
234
  8
0
 10
-22.378181421267069
 20
-38.126045879220328
 30
0.0
  0
VERTEX
  5
235
  8
0
 10
-26.63684403847947
 20
-38.126045879219419
 30
0.0
  0
VERTEX
  5
236
  8
0
 10
-26.63684403847947
 20
-36.984838338820737
 30
0.0
  0
VERTEX
  5
237
  8
0
 10
-22.378181421267069
 20
-36.984838338820737
 30
0.0
  0
SEQEND
  5
238
  8
0
  0
LINE
  5
7B
  8
0
 10
37.699999999998909
 20
-52.699999999999811
 30
0.0
 11
37.699999999998909
 21
-54.699999999999811
 31
0.0
  0
LINE
  5
7C
  8
0
 10
-37.700000000000728
 20
-52.699999999999811
 30
0.0
 11
-37.700000000000728
 21
-54.699999999999811
 31
0.0
  0
LINE
  5
7D
  8
0
 10
40.0
 20
-67.699999999999804
 30
0.0
 11
-74.800000000000182
 21
-67.699999999999804
 31
0.0
  0
LINE
  5
7E
  8
0
 10
37.699999999998909
 20
-54.699999999999811
 30
0.0
 11
-37.700000000000728
 21
-54.699999999999811
 31
0.0
  0
LINE
  5
7F
  8
0
 10
40.0
 20
-63.699999999999818
 30
0.0
 11
-74.800000000000182
 21
-63.699999999999818
 31
0.0
  0
LINE
  5
80
  8
0
 10
40.0
 20
-67.699999999999804
 30
0.0
 11
40.0
 21
-63.699999999999818
 31
0.0
  0
LINE
  5
81
  8
0
 10
37.699999999998909
 20
-54.699999999999811
 30
0.0
 11
37.699999999998909
 21
-63.699999999999818
 31
0.0
  0
LINE
  5
82
  8
0
 10
-72.5
 20
-67.699999999999804
 30
0.0
 11
-72.5
 21
-119.2667564458888
 31
0.0
  0
LINE
  5
83
  8
0
 10
37.699999999998909
 20
-67.699999999999804
 30
0.0
 11
37.699999999999818
 21
-119.26675644589071
 31
0.0
  0
LINE
  5
84
  8
0
 10
35.404119648243068
 20
-126.6999999999998
 30
0.0
 11
-70.20411964824325
 21
-126.6999999999998
 31
0.0
  0
LINE
  5
85
  8
0
 10
37.699999999999818
 20
-119.2667564458888
 30
0.0
 11
-72.5
 21
-119.2667564458888
 31
0.0
  0
LINE
  5
86
  8
0
 10
-72.5
 20
-119.2667564458888
 30
0.0
 11
-70.20411964824325
 21
-126.6999999999998
 31
0.0
  0
LINE
  5
87
  8
0
 10
37.700000000000728
 20
-119.2667564458888
 30
0.0
 11
35.404119648243068
 21
-126.6999999999998
 31
0.0
  0
LINE
  5
88
  8
0
 10
-74.800000000000182
 20
-67.699999999999804
 30
0.0
 11
-74.800000000000182
 21
-63.699999999999818
 31
0.0
  0
LINE
  5
89
  8
0
 10
-74.800000000000182
 20
-63.699999999999818
 30
0.0
 11
-37.700000000000728
 21
-54.699999999999811
 31
0.0
  0
LINE
  5
8A
  8
0
 10
0.0
 20
0.0
 30
0.0
 11
0.0
 21
-67.699999999999804
 31
0.0
  0
LINE
  5
8D
  8
0
 10
-17.399999999999629
 20
-126.6999999999998
 30
0.0
 11
-17.399999999999629
 21
-63.699999999999818
 31
0.0
  0
VIEWPORT
  5
17E
 67
     1
  8
0
  6
CONTINUOUS
 10
128.5
 20
97.5
 30
0.0
 40
348.79216438356173
 41
222.18000000000001
 68
     1
 69
     1
1001
ACAD
1000
MVIEW
1002
{
1070
    16
1010
0.0
1020
0.0
1030
0.0
1010
0.0
1020
0.0
1030
1.0
1040
0.0
1040
222.18000000000001
1040
128.5
1040
97.5
1040
50.0
1040
0.0
1040
0.0
1070
     0
1070
  1000
1070
     1
1070
     1
1070
     0
1070
     0
1070
     0
1070
     0
1040
0.0
1040
0.0
1040
0.0
1040
10.0
1040
10.0
1040
10.0
1040
10.0
1070
     0
1002
{
1002
}
1002
}
  0
VIEWPORT
  5
182
 67
     1
  8
0
  6
CONTINUOUS
 10
128.5
 20
97.5
 30
0.0
 40
205.59999999999999
 41
156.0
 68
     2
 69
     2
1001
ACAD
1000
MVIEW
1002
{
1070
    16
1010
30714.317967474461
1020
7339.7553224022467
1030
0.0
1010
-38962.971254248441
1020
-38962.97125424847
1030
38962.97125424847
1040
0.0000000000000005
1040
133.75233786536421
1040
-16493.84053797456
1040
-15567.333458559669
1040
50.0
1040
0.0
1040
0.0
1070
     0
1070
  1000
1070
     1
1070
     3
1070
     0
1070
     0
1070
     0
1070
     0
1040
0.0
1040
0.0
1040
0.0
1040
10.0
1040
10.0
1040
10.0
1040
10.0
1070
     0
1002
{
1002
}
1002
}
  0
ENDSEC
  0
EOF
