  0
SECTION
  2
HEADER
  9
$ACADVER
  1
AC1009
  9
$INSBASE
 10
0.0
 20
0.0
 30
0.0
  9
$EXTMIN
 10
-57.440000000009597
 20
-119.6410135693295
 30
0.0
  9
$EXTMAX
 10
26.239457039111588
 20
0.0
 30
0.0
  9
$LIMMIN
 10
0.0
 20
0.0
  9
$LIMMAX
 10
420.0
 20
297.0
  9
$ORTHOMODE
 70
     0
  9
$REGENMODE
 70
     1
  9
$FILLMODE
 70
     1
  9
$QTEXTMODE
 70
     0
  9
$MIRRTEXT
 70
     0
  9
$DRAGMODE
 70
     2
  9
$LTSCALE
 40
1.0
  9
$OSMODE
 70
   127
  9
$ATTMODE
 70
     1
  9
$TEXTSIZE
 40
2.5
  9
$TRACEWID
 40
1.0
  9
$TEXTSTYLE
  7
STANDARD
  9
$CLAYER
  8
0
  9
$CELTYPE
  6
CONTINUOUS
  9
$CECOLOR
 62
   256
  9
$DIMSCALE
 40
1.0
  9
$DIMASZ
 40
2.5
  9
$DIMEXO
 40
0.625
  9
$DIMDLI
 40
3.75
  9
$DIMRND
 40
0.0
  9
$DIMDLE
 40
0.0
  9
$DIMEXE
 40
1.25
  9
$DIMTP
 40
0.0
  9
$DIMTM
 40
0.0
  9
$DIMTXT
 40
2.5
  9
$DIMCEN
 40
2.5
  9
$DIMTSZ
 40
0.0
  9
$DIMTOL
 70
     0
  9
$DIMLIM
 70
     0
  9
$DIMTIH
 70
     0
  9
$DIMTOH
 70
     0
  9
$DIMSE1
 70
     0
  9
$DIMSE2
 70
     0
  9
$DIMTAD
 70
     1
  9
$DIMZIN
 70
     8
  9
$DIMBLK
  1

  9
$DIMASO
 70
     1
  9
$DIMSHO
 70
     1
  9
$DIMPOST
  1

  9
$DIMAPOST
  1

  9
$DIMALT
 70
     0
  9
$DIMALTD
 70
     3
  9
$DIMALTF
 40
0.03937007874016
  9
$DIMLFAC
 40
1.0
  9
$DIMTOFL
 70
     1
  9
$DIMTVP
 40
0.0
  9
$DIMTIX
 70
     0
  9
$DIMSOXD
 70
     0
  9
$DIMSAH
 70
     0
  9
$DIMBLK1
  1

  9
$DIMBLK2
  1

  9
$DIMSTYLE
  2
STANDARD
  9
$DIMCLRD
 70
     0
  9
$DIMCLRE
 70
     0
  9
$DIMCLRT
 70
     0
  9
$DIMTFAC
 40
1.0
  9
$DIMGAP
 40
0.625
  9
$LUNITS
 70
     2
  9
$LUPREC
 70
     4
  9
$SKETCHINC
 40
1.0
  9
$FILLETRAD
 40
3.0
  9
$AUNITS
 70
     0
  9
$AUPREC
 70
     0
  9
$MENU
  1
.
  9
$ELEVATION
 40
0.0
  9
$PELEVATION
 40
0.0
  9
$THICKNESS
 40
0.0
  9
$LIMCHECK
 70
     0
  9
$BLIPMODE
 70
     0
  9
$CHAMFERA
 40
0.0
  9
$CHAMFERB
 40
0.0
  9
$SKPOLY
 70
     0
  9
$TDCREATE
 40
2455559.2317578131
  9
$TDUPDATE
 40
2457377.7330262149
  9
$TDINDWG
 40
2.9209809375
  9
$TDUSRTIMER
 40
2.9209769560000001
  9
$USRTIMER
 70
     1
  9
$ANGBASE
 50
0.0
  9
$ANGDIR
 70
     0
  9
$PDMODE
 70
     0
  9
$PDSIZE
 40
0.0
  9
$PLINEWID
 40
0.0
  9
$COORDS
 70
     2
  9
$SPLFRAME
 70
     0
  9
$SPLINETYPE
 70
     6
  9
$SPLINESEGS
 70
     8
  9
$ATTDIA
 70
     1
  9
$ATTREQ
 70
     1
  9
$HANDLING
 70
     1
  9
$HANDSEED
  5
26F
  9
$SURFTAB1
 70
     6
  9
$SURFTAB2
 70
     6
  9
$SURFTYPE
 70
     6
  9
$SURFU
 70
     6
  9
$SURFV
 70
     6
  9
$UCSNAME
  2

  9
$UCSORG
 10
0.0
 20
0.0
 30
0.0
  9
$UCSXDIR
 10
1.0
 20
0.0
 30
0.0
  9
$UCSYDIR
 10
0.0
 20
1.0
 30
0.0
  9
$PUCSNAME
  2

  9
$PUCSORG
 10
0.0
 20
0.0
 30
0.0
  9
$PUCSXDIR
 10
1.0
 20
0.0
 30
0.0
  9
$PUCSYDIR
 10
0.0
 20
1.0
 30
0.0
  9
$USERI1
 70
     0
  9
$USERI2
 70
     0
  9
$USERI3
 70
     0
  9
$USERI4
 70
     0
  9
$USERI5
 70
     0
  9
$USERR1
 40
0.0
  9
$USERR2
 40
0.0
  9
$USERR3
 40
0.0
  9
$USERR4
 40
0.0
  9
$USERR5
 40
0.0
  9
$WORLDVIEW
 70
     1
  9
$SHADEDGE
 70
     3
  9
$SHADEDIF
 70
    70
  9
$TILEMODE
 70
     1
  9
$MAXACTVP
 70
    64
  9
$PLIMCHECK
 70
     0
  9
$PEXTMIN
 10
25.699999999999989
 20
19.5
 30
0.0
  9
$PEXTMAX
 10
231.30000000000001
 20
175.5
 30
0.0
  9
$PLIMMIN
 10
-20.0
 20
-7.5
  9
$PLIMMAX
 10
277.0
 20
202.5
  9
$UNITMODE
 70
     0
  9
$VISRETAIN
 70
     1
  9
$PLINEGEN
 70
     0
  9
$PSLTSCALE
 70
     1
  0
ENDSEC
  0
SECTION
  2
TABLES
  0
TABLE
  2
VPORT
 70
     1
  0
VPORT
  2
*ACTIVE
 70
     0
 10
0.0
 20
0.0
 11
1.0
 21
1.0
 12
16458.127776663969
 22
5824.9361560382022
 13
0.0
 23
0.0
 14
10.0
 24
10.0
 15
10.0
 25
10.0
 16
-38962.971254248441
 26
-38962.97125424847
 36
38962.97125424847
 17
30714.317967474461
 27
7339.7553224022467
 37
0.0
 40
45085.451174768772
 41
1.56986301369863
 42
50.0
 43
0.0
 44
0.0
 50
0.0
 51
0.0000000000000313
 71
     0
 72
  1000
 73
     1
 74
     3
 75
     0
 76
     0
 77
     0
 78
     0
  0
ENDTAB
  0
TABLE
  2
LTYPE
 70
     3
  0
LTYPE
  2
CONTINUOUS
 70
     0
  3
Solid line
 72
    65
 73
     0
 40
0.0
  0
ENDTAB
  0
TABLE
  2
LAYER
 70
     9
  0
LAYER
  2
0
 70
     0
 62
     7
  6
CONTINUOUS
  0
ENDTAB
  0
TABLE
  2
STYLE
 70
     4
  0
STYLE
  2
STANDARD
 70
     0
 40
0.0
 41
1.0
 50
0.0
 71
     0
 42
2.5
  3
txt
  4

  0
STYLE
  2
INSCRIPTIONS
 70
     0
 40
0.0
 41
0.9
 50
0.0
 71
     0
 42
2.5
  3
txt
  4

  0
ENDTAB
  0
TABLE
  2
VIEW
 70
     1
  0
ENDTAB
  0
TABLE
  2
UCS
 70
     0
  0
ENDTAB
  0
TABLE
  2
APPID
 70
     7
  0
APPID
  2
ACAD
 70
     0
  0
APPID
  2
ACAD_PSEXT
 70
     0
  0
APPID
  2
ACAECLAYERSTANDARD
 70
     0
  0
APPID
  2
ACAD_NAV_VCDISPLAY
 70
     0
  0
APPID
  2
REVIT
 70
     0
  0
APPID
  2
ACAD_EXEMPT_FROM_CAD_STANDARDS
 70
     0
  0
APPID
  2
ACAD_MLEADERVER
 70
     0
  0
ENDTAB
  0
TABLE
  2
DIMSTYLE
 70
     1
  0
DIMSTYLE
  2
STANDARD
 70
     0
  3

  4

  5

  6

  7

 40
1.0
 41
0.18
 42
0.0625
 43
0.38
 44
0.18
 45
0.0
 46
0.0
 47
0.0
 48
0.0
140
0.18
141
0.09
142
0.0
143
25.399999999999999
144
1.0
145
0.0
146
1.0
147
0.09
 71
     0
 72
     0
 73
     1
 74
     1
 75
     0
 76
     0
 77
     0
 78
     0
170
     0
171
     2
172
     0
173
     0
174
     0
175
     0
176
     0
177
     0
178
     0
  0
ENDTAB
  0
ENDSEC
  0
SECTION
  2
BLOCKS
  0
BLOCK
  8
0
  2
$MODEL_SPACE
 70
     0
 10
0.0
 20
0.0
 30
0.0
  3
$MODEL_SPACE
  1

  0
ENDBLK
  5
D
  8
0
  0
BLOCK
 67
     1
  8
0
  2
$PAPER_SPACE
 70
     0
 10
0.0
 20
0.0
 30
0.0
  3
$PAPER_SPACE
  1

  0
ENDBLK
  5
177
 67
     1
  8
0
  0
BLOCK
  8
0
  2
*U2
 70
     1
 10
0.0
 20
0.0
 30
0.0
  3
*U2
  1

  0
TEXT
  5
21C
  8
0
  6
CONTINUOUS
 10
1.8243418413330801
 20
-28.5153911166508
 30
0.0
 40
6.0
  1
PP-MD
 41
0.5
  7
INSCRIPTIONS
  0
ENDBLK
  5
21E
  8
0
  0
BLOCK
  8
0
  2
*U3
 70
     1
 10
0.0
 20
0.0
 30
0.0
  3
*U3
  1

  0
TEXT
  5
22F
  8
0
  6
CONTINUOUS
 10
-13.011252352545849
 20
-24.4719623247992
 30
0.0
 40
6.8535025019999987
  1
40
 41
1.1999999999999991
  7
INSCRIPTIONS
  0
ENDBLK
  5
231
  8
0
  0
BLOCK
  8
0
  2
*U4
 70
     1
 10
0.0
 20
0.0
 30
0.0
  3
*U4
  1

  0
TEXT
  5
233
  8
0
  6
CONTINUOUS
 10
-13.011252352553131
 20
-32.878396951423298
 30
0.0
 40
6.8535025019999987
  1
75
 41
1.1999999999999991
  7
INSCRIPTIONS
  0
ENDBLK
  5
235
  8
0
  0
ENDSEC
  0
SECTION
  2
ENTITIES
  0
LINE
  5
4B
  8
0
 10
-57.440000000009597
 20
-67.641013569329516
 30
0.0
 11
21.959999999984571
 21
-67.641013569329516
 31
0.0
  0
LINE
  5
4E
  8
0
 10
-57.440000000009597
 20
-63.641013569329523
 30
0.0
 11
21.959999999984571
 21
-63.641013569329523
 31
0.0
  0
LINE
  5
4F
  8
0
 10
19.959999999991851
 20
-42.64101356932769
 30
0.0
 11
19.959999999991851
 21
-63.641013569329523
 31
0.0
  0
LINE
  5
50
  8
0
 10
21.959999999984571
 20
-63.641013569329523
 30
0.0
 11
21.959999999984571
 21
-67.641013569329516
 31
0.0
  0
LINE
  5
51
  8
0
 10
-55.440000000009597
 20
-67.641013569329516
 30
0.0
 11
-55.440000000009597
 21
-115.0525497943817
 31
0.0
  0
LINE
  5
52
  8
0
 10
19.959999999991851
 20
-67.641013569329516
 30
0.0
 11
19.959999999991851
 21
-115.05254979438359
 31
0.0
  0
LINE
  5
53
  8
0
 10
18.48542086296948
 20
-119.6410135693295
 30
0.0
 11
-53.96542086298723
 21
-119.6410135693295
 31
0.0
  0
LINE
  5
54
  8
0
 10
19.959999999991851
 20
-115.0525497943817
 30
0.0
 11
-55.440000000009597
 21
-115.0525497943817
 31
0.0
  0
LINE
  5
55
  8
0
 10
-55.440000000009597
 20
-115.0525497943817
 30
0.0
 11
-53.96542086298723
 21
-119.6410135693295
 31
0.0
  0
LINE
  5
56
  8
0
 10
19.959999999991851
 20
-115.0525497943817
 30
0.0
 11
18.48542086296948
 21
-119.6410135693295
 31
0.0
  0
LINE
  5
57
  8
0
 10
-57.440000000009597
 20
-63.641013569329523
 30
0.0
 11
-57.440000000009597
 21
-67.641013569329516
 31
0.0
  0
LINE
  5
58
  8
0
 10
-57.440000000009597
 20
-63.641013569329523
 30
0.0
 11
-20.040000000008149
 21
-45.799999999999272
 31
0.0
  0
LINE
  5
59
  8
0
 10
-17.740000000012511
 20
-119.6410135693295
 30
0.0
 11
-17.740000000012511
 21
-63.641013569329523
 31
0.0
  0
LINE
  5
5C
  8
0
 10
21.759999999994761
 20
-35.799999999999272
 30
0.0
 11
-21.84000000000378
 21
-35.799999999999272
 31
0.0
  0
LINE
  5
5D
  8
0
 10
21.759999999994761
 20
-35.799999999999272
 30
0.0
 11
19.959999999991851
 21
-42.64101356932769
 31
0.0
  0
LINE
  5
5E
  8
0
 10
19.959999999991851
 20
-42.64101356932769
 30
0.0
 11
-20.040000000008149
 21
-42.64101356932769
 31
0.0
  0
LINE
  5
5F
  8
0
 10
-20.040000000008149
 20
-42.64101356932769
 30
0.0
 11
-21.84000000000378
 21
-35.799999999999272
 31
0.0
  0
POLYLINE
  5
60
  8
0
 66
     1
 10
0.0
 20
0.0
 30
0.0
 70
     1
  0
VERTEX
  5
20C
  8
0
 10
-14.92151128982368
 20
-17.302263460265749
 30
0.0
  0
VERTEX
  5
20D
  8
0
 10
-20.444867543745211
 20
-17.302263460265749
 30
0.0
  0
VERTEX
  5
20E
  8
0
 10
-20.444867543745211
 20
-19.659338194709559
 30
0.0
  0
VERTEX
  5
20F
  8
0
 10
-14.92151128982368
 20
-19.659338194709559
 30
0.0
  0
SEQEND
  5
210
  8
0
  0
POLYLINE
  5
62
  8
0
 66
     1
 10
0.0
 20
0.0
 30
0.0
 70
     1
  0
VERTEX
  5
211
  8
0
 10
-14.522574809270729
 20
-32.977546914351478
 30
0.0
  0
VERTEX
  5
212
  8
0
 10
-17.147433043799541
 20
-32.977546914351478
 30
0.0
  0
VERTEX
  5
213
  8
0
 10
-17.147433043799541
 20
-31.836339373950981
 30
0.0
  0
VERTEX
  5
214
  8
0
 10
-14.522574809270729
 20
-31.836339373950981
 30
0.0
  0
SEQEND
  5
215
  8
0
  0
POLYLINE
  5
63
  8
0
 66
     1
 10
0.0
 20
0.0
 30
0.0
 70
     1
  0
VERTEX
  5
216
  8
0
 10
-14.72204304954357
 20
-26.52857395080537
 30
0.0
  0
VERTEX
  5
217
  8
0
 10
-19.244726428303689
 20
-26.52857395080537
 30
0.0
  0
VERTEX
  5
218
  8
0
 10
-19.244726428303689
 20
-24.96710361785517
 30
0.0
  0
VERTEX
  5
219
  8
0
 10
-14.72204304954357
 20
-24.96710361785517
 30
0.0
  0
SEQEND
  5
21A
  8
0
  0
INSERT
  5
64
  8
0
  6
CONTINUOUS
  2
*U2
 10
0.0
 20
0.0
 30
0.0
  0
POLYLINE
  5
66
  8
0
 66
     1
 10
0.0
 20
0.0
 30
0.0
 70
     1
  0
VERTEX
  5
21F
  8
0
 10
14.84151128981466
 20
-17.302263460265749
 30
0.0
  0
VERTEX
  5
220
  8
0
 10
20.364867543743461
 20
-17.302263460265749
 30
0.0
  0
VERTEX
  5
221
  8
0
 10
20.364867543743461
 20
-19.659338194709559
 30
0.0
  0
VERTEX
  5
222
  8
0
 10
14.84151128981466
 20
-19.659338194709559
 30
0.0
  0
SEQEND
  5
223
  8
0
  0
POLYLINE
  5
67
  8
0
 66
     1
 10
0.0
 20
0.0
 30
0.0
 70
     1
  0
VERTEX
  5
224
  8
0
 10
14.442574809261711
 20
-32.977546914351478
 30
0.0
  0
VERTEX
  5
225
  8
0
 10
17.067433043790508
 20
-32.977546914351478
 30
0.0
  0
VERTEX
  5
226
  8
0
 10
17.067433043790508
 20
-31.836339373950981
 30
0.0
  0
VERTEX
  5
227
  8
0
 10
14.442574809261711
 20
-31.836339373950981
 30
0.0
  0
SEQEND
  5
228
  8
0
  0
POLYLINE
  5
68
  8
0
 66
     1
 10
0.0
 20
0.0
 30
0.0
 70
     1
  0
VERTEX
  5
229
  8
0
 10
14.64204304953455
 20
-26.52857395080537
 30
0.0
  0
VERTEX
  5
22A
  8
0
 10
19.164726428294671
 20
-26.52857395080537
 30
0.0
  0
VERTEX
  5
22B
  8
0
 10
19.164726428294671
 20
-24.96710361785517
 30
0.0
  0
VERTEX
  5
22C
  8
0
 10
14.64204304953455
 20
-24.96710361785517
 30
0.0
  0
SEQEND
  5
22D
  8
0
  0
LINE
  5
69
  8
0
 10
-25.760000000002041
 20
-14.993899040990071
 30
0.0
 11
25.759999999994761
 21
-14.993899040990071
 31
0.0
  0
LINE
  5
6A
  8
0
 10
-21.760000000002041
 20
0.0
 30
0.0
 11
-21.760000000002041
 21
-1.495903778008141
 31
0.0
  0
LINE
  5
6B
  8
0
 10
-21.759999999994761
 20
-13.12202847089611
 30
0.0
 11
-21.759999999994761
 21
-13.39389904099153
 31
0.0
  0
LINE
  5
6C
  8
0
 10
21.760000000002041
 20
0.0
 30
0.0
 11
21.760000000002041
 21
-1.495903778008141
 31
0.0
  0
LINE
  5
6D
  8
0
 10
21.760000000002041
 20
-13.12202847089611
 30
0.0
 11
21.760000000002041
 21
-13.39389904099153
 31
0.0
  0
LINE
  5
6E
  8
0
 10
-25.759999999994761
 20
-13.393899040989711
 30
0.0
 11
25.760000000002041
 21
-13.39389904099153
 31
0.0
  0
LINE
  5
6F
  8
0
 10
-25.760000000002041
 20
-13.39389904099153
 30
0.0
 11
-25.760000000002041
 21
-14.99389904099189
 31
0.0
  0
LINE
  5
70
  8
0
 10
25.760000000002041
 20
-13.39389904099153
 30
0.0
 11
25.759999999994761
 21
-14.993899040990071
 31
0.0
  0
LINE
  5
71
  8
0
 10
-24.860822428090611
 20
-1.495903778008141
 30
0.0
 11
0.0
 21
-1.495903778008141
 31
0.0
  0
LINE
  5
72
  8
0
 10
0.0
 20
-13.12202847089611
 30
0.0
 11
-26.239457039111588
 21
-13.12202847089611
 31
0.0
  0
LINE
  5
73
  8
0
 10
-26.239457039111588
 20
-13.12202847089611
 30
0.0
 11
-24.860822428090611
 21
-1.495903778008141
 31
0.0
  0
LINE
  5
74
  8
0
 10
24.804766318738981
 20
-1.495903778008141
 30
0.0
 11
0.0
 21
-1.495903778008141
 31
0.0
  0
LINE
  5
75
  8
0
 10
0.0
 20
-13.12202847089611
 30
0.0
 11
26.239457039111588
 21
-13.12202847089611
 31
0.0
  0
LINE
  5
76
  8
0
 10
26.239457039111588
 20
-13.12202847089611
 30
0.0
 11
24.804766318738981
 21
-1.495903778008141
 31
0.0
  0
LINE
  5
77
  8
0
 10
-21.759999999994761
 20
0.0
 30
0.0
 11
-21.760000000002041
 21
-1.495903778008141
 31
0.0
  0
LINE
  5
78
  8
0
 10
-21.759999999994761
 20
0.0
 30
0.0
 11
21.760000000002041
 21
0.0
 31
0.0
  0
LINE
  5
79
  8
0
 10
-0.7999999999956345
 20
-1.495903778008141
 30
0.0
 11
-0.8000000000029103
 21
-13.12202847089611
 31
0.0
  0
LINE
  5
7B
  8
0
 10
0.8000000000029103
 20
-1.495903778008141
 30
0.0
 11
0.8000000000029103
 21
-13.12202847089611
 31
0.0
  0
LINE
  5
7C
  8
0
 10
-9.2490045368613192
 20
-1.495903778008141
 30
0.0
 11
-9.5999999999985448
 21
-13.12202847089611
 31
0.0
  0
LINE
  5
7D
  8
0
 10
9.2490045368613192
 20
-1.495903778008141
 30
0.0
 11
9.5999999999985448
 21
-13.12202847089611
 31
0.0
  0
LINE
  5
7E
  8
0
 10
19.04621019430488
 20
-1.495903778008141
 30
0.0
 11
19.783568713864948
 21
-13.12202847089611
 31
0.0
  0
LINE
  5
7F
  8
0
 10
20.346158286301939
 20
-1.495903778008141
 30
0.0
 11
21.083516805862018
 21
-13.12202847089611
 31
0.0
  0
LINE
  5
80
  8
0
 10
-19.07502020137326
 20
-1.495903778008141
 30
0.0
 11
-19.783568713864948
 21
-13.12202847089611
 31
0.0
  0
LINE
  5
81
  8
0
 10
-20.37496829337033
 20
-1.495903778006322
 30
0.0
 11
-21.083516805862018
 21
-13.12202847089611
 31
0.0
  0
LINE
  5
82
  8
0
 10
-21.834820088683038
 20
-35.819686579810877
 30
0.0
 11
-21.834820088683038
 21
-17.013585620801681
 31
0.0
  0
ARC
  5
83
  8
0
 10
-23.834820088683049
 20
-17.013585620801681
 30
0.0
 40
2.0
 50
0.0
 51
90.0
  0
LINE
  5
84
  8
0
 10
21.759999999994761
 20
-35.799999999999272
 30
0.0
 11
21.759999999994761
 21
-16.993899040990069
 31
0.0
  0
ARC
  5
85
  8
0
 10
23.759999999994761
 20
-16.993899040990069
 30
0.0
 40
2.0
 50
90.0
 51
180.0
  0
LINE
  5
86
  8
0
 10
0.0
 20
0.0
 30
0.0
 11
0.0
 21
-63.641013569327697
 31
0.0
  0
INSERT
  5
87
  8
0
  6
CONTINUOUS
  2
*U3
 10
0.0
 20
0.0
 30
0.0
  0
INSERT
  5
88
  8
0
  6
CONTINUOUS
  2
*U4
 10
0.0
 20
0.0
 30
0.0
  0
LINE
  5
89
  8
0
 10
19.959999999991851
 20
-45.799999999999272
 30
0.0
 11
-20.040000000008149
 21
-45.799999999999272
 31
0.0
  0
LINE
  5
8A
  8
0
 10
-20.040000000008149
 20
-42.64101356932769
 30
0.0
 11
-20.040000000008149
 21
-45.799999999999272
 31
0.0
  0
VIEWPORT
  5
17B
 67
     1
  8
0
  6
CONTINUOUS
 10
128.5
 20
97.5
 30
0.0
 40
348.79216438356173
 41
222.18000000000001
 68
     1
 69
     1
1001
ACAD
1000
MVIEW
1002
{
1070
    16
1010
0.0
1020
0.0
1030
0.0
1010
0.0
1020
0.0
1030
1.0
1040
0.0
1040
222.18000000000001
1040
128.5
1040
97.5
1040
50.0
1040
0.0
1040
0.0
1070
     0
1070
  1000
1070
     1
1070
     1
1070
     0
1070
     0
1070
     0
1070
     0
1040
0.0
1040
0.0
1040
0.0
1040
10.0
1040
10.0
1040
10.0
1040
10.0
1070
     0
1002
{
1002
}
1002
}
  0
VIEWPORT
  5
17F
 67
     1
  8
0
  6
CONTINUOUS
 10
128.5
 20
97.5
 30
0.0
 40
205.59999999999999
 41
156.0
 68
     2
 69
     2
1001
ACAD
1000
MVIEW
1002
{
1070
    16
1010
30714.317967474461
1020
7339.7553224022467
1030
0.0
1010
-38962.971254248441
1020
-38962.97125424847
1030
38962.97125424847
1040
0.0000000000000005
1040
110.05529329994469
1040
-16497.043325351049
1040
-15566.300769570909
1040
50.0
1040
0.0
1040
0.0
1070
     0
1070
  1000
1070
     1
1070
     3
1070
     0
1070
     0
1070
     0
1070
     0
1040
0.0
1040
0.0
1040
0.0
1040
10.0
1040
10.0
1040
10.0
1040
10.0
1070
     0
1002
{
1002
}
1002
}
  0
ENDSEC
  0
EOF
