  0
SECTION
  2
HEADER
  9
$ACADVER
  1
AC1009
  9
$INSBASE
 10
0.0
 20
0.0
 30
0.0
  9
$EXTMIN
 10
-66.89712393816535
 20
-274.5000000000004
 30
0.0
  9
$EXTMAX
 10
175.5982879656803
 20
0.0
 30
0.0
  9
$LIMMIN
 10
0.0
 20
0.0
  9
$LIMMAX
 10
420.0
 20
297.0
  9
$ORTHOMODE
 70
     0
  9
$REGENMODE
 70
     1
  9
$FILLMODE
 70
     1
  9
$QTEXTMODE
 70
     0
  9
$MIRRTEXT
 70
     0
  9
$DRAGMODE
 70
     2
  9
$LTSCALE
 40
1.0
  9
$OSMODE
 70
   127
  9
$ATTMODE
 70
     1
  9
$TEXTSIZE
 40
2.5
  9
$TRACEWID
 40
1.0
  9
$TEXTSTYLE
  7
STANDARD
  9
$CLAYER
  8
0
  9
$CELTYPE
  6
CONTINUOUS
  9
$CECOLOR
 62
   256
  9
$DIMSCALE
 40
1.0
  9
$DIMASZ
 40
2.5
  9
$DIMEXO
 40
0.625
  9
$DIMDLI
 40
3.75
  9
$DIMRND
 40
0.0
  9
$DIMDLE
 40
0.0
  9
$DIMEXE
 40
1.25
  9
$DIMTP
 40
0.0
  9
$DIMTM
 40
0.0
  9
$DIMTXT
 40
2.5
  9
$DIMCEN
 40
2.5
  9
$DIMTSZ
 40
0.0
  9
$DIMTOL
 70
     0
  9
$DIMLIM
 70
     0
  9
$DIMTIH
 70
     0
  9
$DIMTOH
 70
     0
  9
$DIMSE1
 70
     0
  9
$DIMSE2
 70
     0
  9
$DIMTAD
 70
     1
  9
$DIMZIN
 70
     8
  9
$DIMBLK
  1

  9
$DIMASO
 70
     1
  9
$DIMSHO
 70
     1
  9
$DIMPOST
  1

  9
$DIMAPOST
  1

  9
$DIMALT
 70
     0
  9
$DIMALTD
 70
     3
  9
$DIMALTF
 40
0.03937007874016
  9
$DIMLFAC
 40
1.0
  9
$DIMTOFL
 70
     1
  9
$DIMTVP
 40
0.0
  9
$DIMTIX
 70
     0
  9
$DIMSOXD
 70
     0
  9
$DIMSAH
 70
     0
  9
$DIMBLK1
  1

  9
$DIMBLK2
  1

  9
$DIMSTYLE
  2
STANDARD
  9
$DIMCLRD
 70
     0
  9
$DIMCLRE
 70
     0
  9
$DIMCLRT
 70
     0
  9
$DIMTFAC
 40
1.0
  9
$DIMGAP
 40
0.625
  9
$LUNITS
 70
     2
  9
$LUPREC
 70
     4
  9
$SKETCHINC
 40
1.0
  9
$FILLETRAD
 40
3.0
  9
$AUNITS
 70
     0
  9
$AUPREC
 70
     0
  9
$MENU
  1
.
  9
$ELEVATION
 40
0.0
  9
$PELEVATION
 40
0.0
  9
$THICKNESS
 40
0.0
  9
$LIMCHECK
 70
     0
  9
$BLIPMODE
 70
     0
  9
$CHAMFERA
 40
0.0
  9
$CHAMFERB
 40
0.0
  9
$SKPOLY
 70
     0
  9
$TDCREATE
 40
2455559.2317578131
  9
$TDUPDATE
 40
2457377.7281980212
  9
$TDINDWG
 40
2.9209636110999999
  9
$TDUSRTIMER
 40
2.9209596296
  9
$USRTIMER
 70
     1
  9
$ANGBASE
 50
0.0
  9
$ANGDIR
 70
     0
  9
$PDMODE
 70
     0
  9
$PDSIZE
 40
0.0
  9
$PLINEWID
 40
0.0
  9
$COORDS
 70
     2
  9
$SPLFRAME
 70
     0
  9
$SPLINETYPE
 70
     6
  9
$SPLINESEGS
 70
     8
  9
$ATTDIA
 70
     1
  9
$ATTREQ
 70
     1
  9
$HANDLING
 70
     1
  9
$HANDSEED
  5
2D7
  9
$SURFTAB1
 70
     6
  9
$SURFTAB2
 70
     6
  9
$SURFTYPE
 70
     6
  9
$SURFU
 70
     6
  9
$SURFV
 70
     6
  9
$UCSNAME
  2

  9
$UCSORG
 10
0.0
 20
0.0
 30
0.0
  9
$UCSXDIR
 10
1.0
 20
0.0
 30
0.0
  9
$UCSYDIR
 10
0.0
 20
1.0
 30
0.0
  9
$PUCSNAME
  2

  9
$PUCSORG
 10
0.0
 20
0.0
 30
0.0
  9
$PUCSXDIR
 10
1.0
 20
0.0
 30
0.0
  9
$PUCSYDIR
 10
0.0
 20
1.0
 30
0.0
  9
$USERI1
 70
     0
  9
$USERI2
 70
     0
  9
$USERI3
 70
     0
  9
$USERI4
 70
     0
  9
$USERI5
 70
     0
  9
$USERR1
 40
0.0
  9
$USERR2
 40
0.0
  9
$USERR3
 40
0.0
  9
$USERR4
 40
0.0
  9
$USERR5
 40
0.0
  9
$WORLDVIEW
 70
     1
  9
$SHADEDGE
 70
     3
  9
$SHADEDIF
 70
    70
  9
$TILEMODE
 70
     1
  9
$MAXACTVP
 70
    64
  9
$PLIMCHECK
 70
     0
  9
$PEXTMIN
 10
25.699999999999989
 20
19.5
 30
0.0
  9
$PEXTMAX
 10
231.30000000000001
 20
175.5
 30
0.0
  9
$PLIMMIN
 10
-20.0
 20
-7.5
  9
$PLIMMAX
 10
277.0
 20
202.5
  9
$UNITMODE
 70
     0
  9
$VISRETAIN
 70
     1
  9
$PLINEGEN
 70
     0
  9
$PSLTSCALE
 70
     1
  0
ENDSEC
  0
SECTION
  2
TABLES
  0
TABLE
  2
VPORT
 70
     1
  0
VPORT
  2
*ACTIVE
 70
     0
 10
0.0
 20
0.0
 11
1.0
 21
1.0
 12
16458.127776663969
 22
5824.9361560382022
 13
0.0
 23
0.0
 14
10.0
 24
10.0
 15
10.0
 25
10.0
 16
-38962.971254248441
 26
-38962.97125424847
 36
38962.97125424847
 17
30714.317967474461
 27
7339.7553224022467
 37
0.0
 40
45085.451174768772
 41
1.56986301369863
 42
50.0
 43
0.0
 44
0.0
 50
0.0
 51
0.0000000000000313
 71
     0
 72
  1000
 73
     1
 74
     3
 75
     0
 76
     0
 77
     0
 78
     0
  0
ENDTAB
  0
TABLE
  2
LTYPE
 70
     4
  0
LTYPE
  2
CONTINUOUS
 70
     0
  3
Solid line
 72
    65
 73
     0
 40
0.0
  0
ENDTAB
  0
TABLE
  2
LAYER
 70
    10
  0
LAYER
  2
0
 70
     0
 62
     7
  6
CONTINUOUS
  0
ENDTAB
  0
TABLE
  2
STYLE
 70
     4
  0
STYLE
  2
STANDARD
 70
     0
 40
0.0
 41
1.0
 50
0.0
 71
     0
 42
2.5
  3
txt
  4

  0
STYLE
  2
INSCRIPTIONS
 70
     0
 40
0.0
 41
0.9
 50
0.0
 71
     0
 42
2.5
  3
txt
  4

  0
ENDTAB
  0
TABLE
  2
VIEW
 70
     1
  0
ENDTAB
  0
TABLE
  2
UCS
 70
     0
  0
ENDTAB
  0
TABLE
  2
APPID
 70
     7
  0
APPID
  2
ACAD
 70
     0
  0
APPID
  2
ACAD_PSEXT
 70
     0
  0
APPID
  2
ACAECLAYERSTANDARD
 70
     0
  0
APPID
  2
ACAD_NAV_VCDISPLAY
 70
     0
  0
APPID
  2
REVIT
 70
     0
  0
APPID
  2
ACAD_EXEMPT_FROM_CAD_STANDARDS
 70
     0
  0
APPID
  2
ACAD_MLEADERVER
 70
     0
  0
ENDTAB
  0
TABLE
  2
DIMSTYLE
 70
     1
  0
DIMSTYLE
  2
STANDARD
 70
     0
  3

  4

  5

  6

  7

 40
1.0
 41
0.18
 42
0.0625
 43
0.38
 44
0.18
 45
0.0
 46
0.0
 47
0.0
 48
0.0
140
0.18
141
0.09
142
0.0
143
25.399999999999999
144
1.0
145
0.0
146
1.0
147
0.09
 71
     0
 72
     0
 73
     1
 74
     1
 75
     0
 76
     0
 77
     0
 78
     0
170
     0
171
     2
172
     0
173
     0
174
     0
175
     0
176
     0
177
     0
178
     0
  0
ENDTAB
  0
ENDSEC
  0
SECTION
  2
BLOCKS
  0
BLOCK
  8
0
  2
$MODEL_SPACE
 70
     0
 10
0.0
 20
0.0
 30
0.0
  3
$MODEL_SPACE
  1

  0
ENDBLK
  5
D
  8
0
  0
BLOCK
 67
     1
  8
0
  2
$PAPER_SPACE
 70
     0
 10
0.0
 20
0.0
 30
0.0
  3
$PAPER_SPACE
  1

  0
ENDBLK
  5
1BD
 67
     1
  8
0
  0
BLOCK
  8
0
  2
*U2
 70
     1
 10
0.0
 20
0.0
 30
0.0
  3
*U2
  1

  0
TEXT
  5
253
  8
0
  6
CONTINUOUS
 10
-28.274320855829501
 20
-41.725765796591098
 30
0.0
 40
20.020769999999992
  1
110
 41
0.8
  7
INSCRIPTIONS
  0
ENDBLK
  5
255
  8
0
  0
BLOCK
  8
0
  2
*U3
 70
     1
 10
0.0
 20
0.0
 30
0.0
  3
*U3
  1

  0
TEXT
  5
266
  8
0
  6
CONTINUOUS
 10
11.21091224451447
 20
-30.14116018908565
 30
0.0
 40
8.0999999999999996
  1
45°
 41
0.7
  7
INSCRIPTIONS
  0
ENDBLK
  5
268
  8
0
  0
BLOCK
  8
0
  2
*U4
 70
     1
 10
0.0
 20
0.0
 30
0.0
  3
*U4
  1

  0
TEXT
  5
26A
  8
0
  6
CONTINUOUS
 10
6.991397918900474
 20
-41.119238094727372
 30
0.0
 40
8.0999999999999996
  1
PP-MD
 41
0.6
  7
INSCRIPTIONS
  0
ENDBLK
  5
26C
  8
0
  0
BLOCK
  8
0
  2
*U5
 70
     1
 10
0.0
 20
0.0
 30
0.0
  3
*U5
  1

  0
TEXT
  5
27D
  8
0
  6
CONTINUOUS
 10
91.341415595455317
 20
-72.280671416720935
 30
0.0
 40
20.020769999999992
  1
110
 50
314.99999999999989
 41
0.8
  7
INSCRIPTIONS
  0
ENDBLK
  5
27F
  8
0
  0
ENDSEC
  0
SECTION
  2
ENTITIES
  0
LINE
  5
4B
  8
0
 10
0.0
 20
0.0
 30
0.0
 11
0.0000000000009095
 21
-186.5000000000004
 31
0.0
  0
LINE
  5
4F
  8
0
 10
0.0000000000009095
 20
-186.5000000000004
 30
0.0
 11
0.000000000001819
 21
-274.50000000000023
 31
0.0
  0
LINE
  5
50
  8
0
 10
57.989898732234899
 20
-46.500000000000107
 30
0.0
 11
-58.412000000000262
 21
-46.500000000000341
 31
0.0
  0
LINE
  5
52
  8
0
 10
-55.099999999999447
 20
-60.900000000000432
 30
0.0
 11
-27.905619517540799
 21
-60.900000000000432
 31
0.0
  0
LINE
  5
53
  8
0
 10
27.90561951753898
 20
-60.900000000000432
 30
0.0
 11
52.025223434062347
 21
-60.900000000000212
 31
0.0
  0
ARC
  5
54
  8
0
 10
-0.0000000000009095
 20
-39.238466151533324
 30
0.0
 40
38.954503636548402
 50
239.34608426254911
 51
300.65391573744091
  0
ARC
  5
55
  8
0
 10
-0.0000000000009095
 20
-39.238466151533324
 30
0.0
 40
41.834503636548398
 50
239.34608426254911
 51
300.65391573744091
  0
ARC
  5
56
  8
0
 10
14.721699018848989
 20
-64.078122716230496
 30
0.0
 40
10.08
 50
300.65391573744091
 51
356.4236656249962
  0
ARC
  5
57
  8
0
 10
14.721699018848989
 20
-64.078122716230496
 30
0.0
 40
12.960000000000001
 50
300.65391573744091
 51
356.4236656249962
  0
ARC
  5
58
  8
0
 10
-14.721699018852631
 20
-64.078122716228904
 30
0.0
 40
10.08
 50
183.5763343750038
 51
239.34608426254911
  0
ARC
  5
59
  8
0
 10
-14.721699018852631
 20
-64.078122716228904
 30
0.0
 40
12.960000000000001
 50
183.5763343750038
 51
239.34608426254911
  0
LINE
  5
5A
  8
0
 10
-24.782069009959741
 20
-64.706895840673155
 30
0.0
 11
-25.828018490666182
 21
-47.971704149396942
 31
0.0
  0
LINE
  5
5B
  8
0
 10
-27.6564604359919
 20
-64.886545304800052
 30
0.0
 11
-28.713638008203819
 21
-47.971704149396942
 31
0.0
  0
LINE
  5
5C
  8
0
 10
24.782069009956111
 20
-64.706895840674747
 30
0.0
 11
25.828018490661631
 21
-47.971704149396707
 31
0.0
  0
LINE
  5
5D
  8
0
 10
27.656460435987359
 20
-64.886545304801643
 30
0.0
 11
28.713638008202
 21
-47.971704149396707
 31
0.0
  0
LINE
  5
5E
  8
0
 10
-28.713638008202899
 20
-47.971704149396942
 30
0.0
 11
-25.828018490666182
 21
-47.971704149396942
 31
0.0
  0
LINE
  5
5F
  8
0
 10
25.828018490661631
 20
-47.971704149396942
 30
0.0
 11
28.713638008202
 21
-47.971704149396942
 31
0.0
  0
LINE
  5
60
  8
0
 10
24.984843604970589
 20
-61.462502320439739
 30
0.0
 11
13.044175147007991
 21
-61.462502320439739
 31
0.0
  0
LINE
  5
61
  8
0
 10
24.984843604970589
 20
-60.022502320439912
 30
0.0
 11
13.044175147007991
 21
-60.022502320439692
 31
0.0
  0
LINE
  5
62
  8
0
 10
11.686043102434271
 20
-62.423882064389211
 30
0.0
 11
6.310156868366902
 21
-77.678487923983198
 31
0.0
  0
LINE
  5
63
  8
0
 10
10.327911057859639
 20
-61.945261808338607
 30
0.0
 11
4.7024368161291932
 21
-77.908098184436881
 31
0.0
  0
ARC
  5
64
  8
0
 10
13.044175147007991
 20
-62.902502320439787
 30
0.0
 40
2.879999999999999
 50
90.0
 51
160.586997324062
  0
ARC
  5
65
  8
0
 10
13.044175147007991
 20
-62.902502320439787
 30
0.0
 40
1.4399999999998361
 50
90.0
 51
160.586997324062
  0
LINE
  5
66
  8
0
 10
17.523836076892621
 20
-64.184837126332127
 30
0.0
 11
15.538980390310821
 21
-69.817060329845035
 31
0.0
  0
LINE
  5
67
  8
0
 10
19.042588166787031
 20
-64.720061603985755
 30
0.0
 11
17.05773248020796
 21
-70.352284807499586
 31
0.0
  0
LINE
  5
68
  8
0
 10
17.523836076892621
 20
-64.184837126332127
 30
0.0
 11
19.042588166787031
 21
-64.720061603985755
 31
0.0
  0
LINE
  5
69
  8
0
 10
15.53898039031264
 20
-69.817060329845276
 30
0.0
 11
17.05773248020796
 21
-70.352284807499586
 31
0.0
  0
LINE
  5
6A
  8
0
 10
15.363361856461781
 20
-70.315395190160302
 30
0.0
 11
16.882113946356181
 21
-70.85061966781393
 31
0.0
  0
LINE
  5
6B
  8
0
 10
15.3633618564636
 20
-70.315395190160302
 30
0.0
 11
15.73222317512591
 21
-71.691131368455331
 31
0.0
  0
LINE
  5
6C
  8
0
 10
15.73222317512591
 20
-71.691131368455331
 30
0.0
 11
16.882113946356181
 21
-70.85061966781393
 31
0.0
  0
LINE
  5
6D
  8
0
 10
-55.099999999999447
 20
-60.900000000000432
 30
0.0
 11
-58.412000000000262
 21
-46.500000000000341
 31
0.0
  0
LINE
  5
6E
  8
0
 10
-55.099999999999447
 20
-60.900000000000311
 30
0.0
 11
-55.099999999998552
 21
-267.06675644588881
 31
0.0
  0
LINE
  5
6F
  8
0
 10
55.100000000000371
 20
-209.3231672867573
 30
0.0
 11
55.100000000001273
 21
-267.06675644589092
 31
0.0
  0
INSERT
  5
70
  8
0
  6
CONTINUOUS
  2
*U2
 10
0.0
 20
0.0
 30
0.0
  0
POLYLINE
  5
73
  8
0
 66
     1
 10
0.0
 20
0.0
 30
0.0
 70
     1
  0
VERTEX
  5
256
  8
0
 10
-30.831397987059969
 20
-23.20496074307562
 30
0.0
  0
VERTEX
  5
257
  8
0
 10
-37.988558623666911
 20
-23.204960743075389
 30
0.0
  0
VERTEX
  5
258
  8
0
 10
-37.988558623666911
 20
-25.562035477518521
 30
0.0
  0
VERTEX
  5
259
  8
0
 10
-30.831397987059969
 20
-25.562035477518521
 30
0.0
  0
SEQEND
  5
25A
  8
0
  0
POLYLINE
  5
74
  8
0
 66
     1
 10
0.0
 20
0.0
 30
0.0
 70
     1
  0
VERTEX
  5
25B
  8
0
 10
-30.225647733779631
 20
-41.163814573362053
 30
0.0
  0
VERTEX
  5
25C
  8
0
 10
-34.484310350991109
 20
-41.163814573361833
 30
0.0
  0
VERTEX
  5
25D
  8
0
 10
-34.484310350991109
 20
-40.022607032962462
 30
0.0
  0
VERTEX
  5
25E
  8
0
 10
-30.225647733778711
 20
-40.022607032962462
 30
0.0
  0
SEQEND
  5
25F
  8
0
  0
LINE
  5
75
  8
0
 10
-30.575566742923911
 20
-33.433244112028213
 30
0.0
 11
-36.299920045063118
 21
-33.433244112028213
 31
0.0
  0
POLYLINE
  5
76
  8
0
 66
     1
 10
0.0
 20
0.0
 30
0.0
 70
     1
  0
VERTEX
  5
260
  8
0
 10
-30.575566742923911
 20
-33.433244112028213
 30
0.0
  0
VERTEX
  5
261
  8
0
 10
-36.732054504361258
 20
-33.433244112028213
 30
0.0
  0
VERTEX
  5
262
  8
0
 10
-36.732054504362168
 20
-31.871773779078239
 30
0.0
  0
VERTEX
  5
263
  8
0
 10
-30.575566742923911
 20
-31.871773779078008
 30
0.0
  0
SEQEND
  5
264
  8
0
  0
INSERT
  5
77
  8
0
  6
CONTINUOUS
  2
*U3
 10
0.0
 20
0.0
 30
0.0
  0
INSERT
  5
78
  8
0
  6
CONTINUOUS
  2
*U4
 10
0.0
 20
0.0
 30
0.0
  0
POLYLINE
  5
79
  8
0
 66
     1
 10
0.0
 20
0.0
 30
0.0
 70
     1
  0
VERTEX
  5
26D
  8
0
 10
30.831397987059969
 20
-23.204960743075048
 30
0.0
  0
VERTEX
  5
26E
  8
0
 10
37.988558623666911
 20
-23.204960743074711
 30
0.0
  0
VERTEX
  5
26F
  8
0
 10
37.988558623666911
 20
-25.562035477517838
 30
0.0
  0
VERTEX
  5
270
  8
0
 10
30.831397987059969
 20
-25.562035477517949
 30
0.0
  0
SEQEND
  5
271
  8
0
  0
POLYLINE
  5
7A
  8
0
 66
     1
 10
0.0
 20
0.0
 30
0.0
 70
     1
  0
VERTEX
  5
272
  8
0
 10
30.225647733779631
 20
-41.163814573361492
 30
0.0
  0
VERTEX
  5
273
  8
0
 10
34.484310350992018
 20
-41.163814573361151
 30
0.0
  0
VERTEX
  5
274
  8
0
 10
34.484310350992018
 20
-40.022607032961787
 30
0.0
  0
VERTEX
  5
275
  8
0
 10
30.225647733779631
 20
-40.022607032961893
 30
0.0
  0
SEQEND
  5
276
  8
0
  0
LINE
  5
7B
  8
0
 10
30.575566742924821
 20
-33.433244112027637
 30
0.0
 11
36.299920045064027
 21
-33.433244112027531
 31
0.0
  0
POLYLINE
  5
7C
  8
0
 66
     1
 10
0.0
 20
0.0
 30
0.0
 70
     1
  0
VERTEX
  5
277
  8
0
 10
30.575566742924821
 20
-33.433244112027637
 30
0.0
  0
VERTEX
  5
278
  8
0
 10
36.732054504362168
 20
-33.433244112027531
 30
0.0
  0
VERTEX
  5
279
  8
0
 10
36.732054504362168
 20
-31.871773779077561
 30
0.0
  0
VERTEX
  5
27A
  8
0
 10
30.575566742924821
 20
-31.87177377907744
 30
0.0
  0
SEQEND
  5
27B
  8
0
  0
LINE
  5
7D
  8
0
 10
52.804119648244523
 20
-274.5
 30
0.0
 11
-52.804119648241787
 21
-274.5000000000004
 31
0.0
  0
LINE
  5
7E
  8
0
 10
55.100000000001273
 20
-267.0667564458891
 30
0.0
 11
-55.099999999998552
 21
-267.06675644588933
 31
0.0
  0
LINE
  5
7F
  8
0
 10
-55.099999999998552
 20
-267.06675644588933
 30
0.0
 11
-52.804119648241787
 21
-274.50000000000023
 31
0.0
  0
LINE
  5
80
  8
0
 10
55.100000000002183
 20
-267.06675644588933
 30
0.0
 11
52.804119648244523
 21
-274.50000000000023
 31
0.0
  0
LINE
  5
81
  8
0
 10
131.8754146912915
 20
-54.624585308708667
 30
0.0
 11
0.0000000000009095
 21
-186.5
 31
0.0
  0
LINE
  5
82
  8
0
 10
140.2984706687875
 20
-128.80857193655311
 30
0.0
 11
57.989898732233989
 21
-46.5
 31
0.0
  0
LINE
  5
83
  8
0
 10
52.025223434062347
 20
-60.899999999999643
 30
0.0
 11
127.77419536040991
 21
-136.64897192634771
 31
0.0
  0
LINE
  5
84
  8
0
 10
127.77419536040991
 20
-136.64897192634771
 30
0.0
 11
140.2984706687875
 21
-128.80857193655311
 31
0.0
  0
LINE
  5
85
  8
0
 10
127.77419536040991
 20
-136.64897192634771
 30
0.0
 11
55.100000000001273
 21
-209.3231672867573
 31
0.0
  0
INSERT
  5
86
  8
0
  6
CONTINUOUS
  2
*U5
 10
0.0
 20
0.0
 30
0.0
  0
POLYLINE
  5
87
  8
0
 66
     1
 10
0.0
 20
0.0
 30
0.0
 70
     1
  0
VERTEX
  5
280
  8
0
 10
102.62947586231979
 20
-57.376357990835913
 30
0.0
  0
VERTEX
  5
281
  8
0
 10
97.568599042133414
 20
-52.315481170649491
 30
0.0
  0
VERTEX
  5
282
  8
0
 10
95.901895513645286
 20
-53.982184699137633
 30
0.0
  0
VERTEX
  5
283
  8
0
 10
100.96277233383169
 20
-59.043061519323828
 30
0.0
  0
SEQEND
  5
284
  8
0
  0
POLYLINE
  5
88
  8
0
 66
     1
 10
0.0
 20
0.0
 30
0.0
 70
     1
  0
VERTEX
  5
285
  8
0
 10
90.358978648386255
 20
-70.50351542836961
 30
0.0
  0
VERTEX
  5
286
  8
0
 10
87.347649432970684
 20
-67.492186212953115
 30
0.0
  0
VERTEX
  5
287
  8
0
 10
88.154605023528333
 20
-66.685230622395693
 30
0.0
  0
VERTEX
  5
288
  8
0
 10
91.165934238944828
 20
-69.696559837812174
 30
0.0
  0
SEQEND
  5
289
  8
0
  0
LINE
  5
89
  8
0
 10
95.577887339803965
 20
-64.78974652848774
 30
0.0
 11
91.530158301953634
 21
-60.742017490637409
 31
0.0
  0
POLYLINE
  5
8A
  8
0
 66
     1
 10
0.0
 20
0.0
 30
0.0
 70
     1
  0
VERTEX
  5
28A
  8
0
 10
95.577887339803965
 20
-64.78974652848774
 30
0.0
  0
VERTEX
  5
28B
  8
0
 10
91.224593095399527
 20
-60.436452284083309
 30
0.0
  0
VERTEX
  5
28C
  8
0
 10
92.328719356450165
 20
-59.332326023032458
 30
0.0
  0
VERTEX
  5
28D
  8
0
 10
96.682013600854589
 20
-63.685620267437109
 30
0.0
  0
SEQEND
  5
28E
  8
0
  0
POLYLINE
  5
8B
  8
0
 66
     1
 10
0.0
 20
0.0
 30
0.0
 70
     1
  0
VERTEX
  5
28F
  8
0
 10
129.12364200916451
 20
-83.870524137679453
 30
0.0
  0
VERTEX
  5
290
  8
0
 10
134.18451882935091
 20
-88.931400957865435
 30
0.0
  0
VERTEX
  5
291
  8
0
 10
132.51781530086279
 20
-90.598104486353577
 30
0.0
  0
VERTEX
  5
292
  8
0
 10
127.4569384806764
 20
-85.537227666167382
 30
0.0
  0
SEQEND
  5
293
  8
0
  0
POLYLINE
  5
8C
  8
0
 66
     1
 10
0.0
 20
0.0
 30
0.0
 70
     1
  0
VERTEX
  5
294
  8
0
 10
115.9964845716313
 20
-96.141021351613063
 30
0.0
  0
VERTEX
  5
295
  8
0
 10
119.00781378704779
 20
-99.15235056702933
 30
0.0
  0
VERTEX
  5
296
  8
0
 10
119.8147693776054
 20
-98.34539497647188
 30
0.0
  0
VERTEX
  5
297
  8
0
 10
116.803440162188
 20
-95.334065761055186
 30
0.0
  0
SEQEND
  5
298
  8
0
  0
LINE
  5
8D
  8
0
 10
121.7102534715122
 20
-90.922112660195793
 30
0.0
 11
125.7579825093635
 21
-94.969841698045911
 31
0.0
  0
POLYLINE
  5
8E
  8
0
 66
     1
 10
0.0
 20
0.0
 30
0.0
 70
     1
  0
VERTEX
  5
299
  8
0
 10
121.7102534715122
 20
-90.922112660195793
 30
0.0
  0
VERTEX
  5
29A
  8
0
 10
126.06354771591759
 20
-95.275406904600004
 30
0.0
  0
VERTEX
  5
29B
  8
0
 10
127.1676739769682
 20
-94.171280643549395
 30
0.0
  0
VERTEX
  5
29C
  8
0
 10
122.8143797325629
 20
-89.817986399144715
 30
0.0
  0
SEQEND
  5
29D
  8
0
  0
LINE
  5
8F
  8
0
 10
58.41200000000299
 20
-45.480957394659519
 30
0.0
 11
0.0000000000009095
 21
-186.5
 31
0.0
  0
LINE
  5
90
  8
0
 10
0.0000000000009095
 20
-186.5
 30
0.0
 11
55.100000000001273
 21
-209.3231672867573
 31
0.0
  0
LINE
  5
91
  8
0
 10
52.804119648244523
 20
-215.5
 30
0.0
 11
-52.804119648241787
 21
-215.50000000000051
 31
0.0
  0
LINE
  5
94
  8
0
 10
54.67789873223137
 20
-17.9647538431127
 30
0.0
 11
-55.522101267768448
 21
-17.964753843113609
 31
0.0
  0
LINE
  5
95
  8
0
 10
-66.034101267767255
 20
-17.9647538431127
 30
0.0
 11
65.189898732230176
 21
-17.964753843113609
 31
0.0
  0
LINE
  5
96
  8
0
 10
-58.834101267767437
 20
0.0
 30
0.0
 11
-58.834101267767437
 21
-2.159999999999854
 31
0.0
  0
LINE
  5
97
  8
0
 10
-58.834101267764709
 20
-14.595386816942661
 30
0.0
 11
-58.834101267765618
 21
-15.08475384311259
 31
0.0
  0
LINE
  5
98
  8
0
 10
-58.834101267768339
 20
-20.881728076453332
 30
0.0
 11
-58.834101267765618
 21
-46.499999999999083
 31
0.0
  0
LINE
  5
99
  8
0
 10
57.989898732234899
 20
0.0
 30
0.0
 11
57.989898732234899
 21
-2.159999999999854
 31
0.0
  0
LINE
  5
9A
  8
0
 10
57.98989873223217
 20
-14.595386816942661
 30
0.0
 11
57.989898732233989
 21
-15.08475384311259
 31
0.0
  0
LINE
  5
9B
  8
0
 10
57.989898732233989
 20
-20.881728076458788
 30
0.0
 11
57.989898732233989
 21
-46.5
 31
0.0
  0
LINE
  5
9C
  8
0
 10
-66.034101267766346
 20
-15.08475384311259
 30
0.0
 11
65.189898732231995
 21
-15.08475384311259
 31
0.0
  0
LINE
  5
9D
  8
0
 10
-66.034101267767255
 20
-15.08475384311259
 30
0.0
 11
-66.034101267768165
 21
-17.9647538431127
 31
0.0
  0
LINE
  5
9E
  8
0
 10
65.189898732231995
 20
-15.08475384311259
 30
0.0
 11
65.189898732231086
 21
-17.9647538431127
 31
0.0
  0
LINE
  5
9F
  8
0
 10
-64.41558163832542
 20
-2.159999999999854
 30
0.0
 11
-0.4221012677689942
 21
-2.159999999999854
 31
0.0
  0
LINE
  5
A0
  8
0
 10
-0.4221012677689942
 20
-14.595386816942661
 30
0.0
 11
-66.89712393816535
 21
-14.595386816942661
 31
0.0
  0
LINE
  5
A1
  8
0
 10
-66.89712393816535
 20
-14.595386816942661
 30
0.0
 11
-64.41558163832542
 21
-2.159999999999854
 31
0.0
  0
LINE
  5
A2
  8
0
 10
63.571379102792889
 20
-2.159999999999854
 30
0.0
 11
-0.4221012677689942
 21
-2.159999999999854
 31
0.0
  0
LINE
  5
A3
  8
0
 10
-0.4221012677689942
 20
-14.595386816942661
 30
0.0
 11
66.052921402633714
 21
-14.595386816942661
 31
0.0
  0
LINE
  5
A4
  8
0
 10
66.052921402633714
 20
-14.595386816942661
 30
0.0
 11
63.571379102792889
 21
-2.159999999999854
 31
0.0
  0
LINE
  5
A5
  8
0
 10
-58.834101267764709
 20
0.0
 30
0.0
 11
-58.834101267767437
 21
-2.159999999999854
 31
0.0
  0
LINE
  5
A6
  8
0
 10
-58.834101267765618
 20
-20.881728076453332
 30
0.0
 11
-58.834101267765618
 21
-46.499999999999083
 31
0.0
  0
LINE
  5
A7
  8
0
 10
-58.834101267765618
 20
0.0
 30
0.0
 11
57.989898732233989
 21
0.0
 31
0.0
  0
ARC
  5
A8
  8
0
 10
60.906872965580078
 20
-20.881728076458788
 30
0.0
 40
2.91697423334579
 50
90.0
 51
180.0
  0
ARC
  5
A9
  8
0
 10
-61.751075501114428
 20
-20.881728076453332
 30
0.0
 40
2.91697423334579
 50
0.0
 51
90.0
  0
LINE
  5
AA
  8
0
 10
-1.862101267765865
 20
-2.159999999999854
 30
0.0
 11
-1.862101267767684
 21
-14.595386816942661
 31
0.0
  0
LINE
  5
AC
  8
0
 10
1.0178987322315149
 20
-2.159999999999854
 30
0.0
 11
1.0178987322315149
 21
-14.595386816942661
 31
0.0
  0
LINE
  5
AD
  8
0
 10
-17.070309434115192
 20
-2.159999999999854
 30
0.0
 11
-17.70210126776783
 21
-14.595386816942661
 31
0.0
  0
LINE
  5
AE
  8
0
 10
16.2261068985772
 20
-2.159999999999854
 30
0.0
 11
16.857898732229842
 21
-14.595386816942661
 31
0.0
  0
LINE
  5
AF
  8
0
 10
-47.478713945283737
 20
-2.159999999999854
 30
0.0
 11
-48.754101267764781
 21
-14.595386816942661
 31
0.0
  0
LINE
  5
B0
  8
0
 10
-49.818620510878652
 20
-2.159999999999854
 30
0.0
 11
-51.094007833359683
 21
-14.595386816942661
 31
0.0
  0
LINE
  5
B1
  8
0
 10
46.634511409751212
 20
-2.159999999999854
 30
0.0
 11
47.90989873223225
 21
-14.595386816942661
 31
0.0
  0
LINE
  5
B2
  8
0
 10
48.974417975346107
 20
-2.159999999999854
 30
0.0
 11
50.249805297827152
 21
-14.595386816942661
 31
0.0
  0
LINE
  5
B3
  8
0
 10
158.13399906985791
 20
-106.2891682168988
 30
0.0
 11
80.210831783098925
 21
-28.366000930142491
 31
0.0
  0
LINE
  5
B4
  8
0
 10
72.777725299267331
 20
-20.932894446310002
 30
0.0
 11
165.56710555368949
 21
-113.7222747007313
 31
0.0
  0
LINE
  5
B5
  8
0
 10
90.571893388622811
 20
-13.32106400604016
 30
0.0
 11
89.044542741259647
 21
-14.848414653403321
 31
0.0
  0
LINE
  5
B6
  8
0
 10
80.251396396323798
 20
-23.641560998343721
 30
0.0
 11
79.90536165362937
 21
-23.987595741037239
 31
0.0
  0
LINE
  5
B7
  8
0
 10
75.806281862867763
 20
-28.086675531794299
 30
0.0
 11
57.691428063450083
 21
-46.201529331216527
 31
0.0
  0
LINE
  5
B8
  8
0
 10
173.17893599396299
 20
-95.928106611378553
 30
0.0
 11
171.6515853465998
 21
-97.455457258741731
 31
0.0
  0
LINE
  5
B9
  8
0
 10
162.85843900165941
 20
-106.24860360367749
 30
0.0
 11
162.5124042589668
 21
-106.5946383463729
 31
0.0
  0
LINE
  5
BA
  8
0
 10
158.41332446820431
 20
-110.69371813713541
 30
0.0
 11
140.2984706687875
 21
-128.80857193655311
 31
0.0
  0
LINE
  5
BB
  8
0
 10
74.814192829086096
 20
-18.896426916493049
 30
0.0
 11
167.60357308350831
 21
-111.6858071709143
 31
0.0
  0
LINE
  5
BC
  8
0
 10
74.814192829084277
 20
-18.896426916492139
 30
0.0
 11
72.777725299267331
 21
-20.932894446309088
 31
0.0
  0
LINE
  5
BD
  8
0
 10
167.60357308350831
 20
-111.6858071709143
 30
0.0
 11
165.56710555369131
 21
-113.7222747007313
 31
0.0
  0
LINE
  5
BE
  8
0
 10
85.097840122178241
 20
-10.901712034322831
 30
0.0
 11
130.34806404392839
 21
-56.151935956071164
 31
0.0
  0
LINE
  5
BF
  8
0
 10
121.5549176989898
 20
-64.945082301008824
 30
0.0
 11
74.549978389222815
 21
-17.940142991242741
 31
0.0
  0
LINE
  5
C0
  8
0
 10
74.549978389222815
 20
-17.940142991242741
 30
0.0
 11
85.097840122178241
 21
-10.901712034322831
 31
0.0
  0
LINE
  5
C1
  8
0
 10
175.5982879656803
 20
-101.4021598778231
 30
0.0
 11
130.34806404392839
 21
-56.151935956071164
 31
0.0
  0
LINE
  5
C2
  8
0
 10
121.5549176989898
 20
-64.945082301008824
 30
0.0
 11
168.5598570087613
 21
-111.9500216107794
 31
0.0
  0
LINE
  5
C3
  8
0
 10
168.5598570087613
 20
-111.9500216107794
 30
0.0
 11
175.5982879656803
 21
-101.4021598778231
 31
0.0
  0
LINE
  5
C4
  8
0
 10
90.571893388624616
 20
-13.321064006041979
 30
0.0
 11
89.044542741259647
 21
-14.848414653403321
 31
0.0
  0
LINE
  5
C5
  8
0
 10
75.806281862869582
 20
-28.086675531796121
 30
0.0
 11
57.691428063450083
 21
-46.201529331216527
 31
0.0
  0
LINE
  5
C6
  8
0
 10
90.571893388623721
 20
-13.321064006041979
 30
0.0
 11
173.1789359939612
 21
-95.928106611377643
 31
0.0
  0
ARC
  5
C7
  8
0
 10
160.47593672914991
 20
-112.756330398081
 30
0.0
 40
2.91697423334579
 50
44.999999999995389
 51
135.0000000000046
  0
ARC
  5
C8
  8
0
 10
73.743669601923102
 20
-26.024063270848728
 30
0.0
 40
2.91697423334579
 50
315.0000000000046
 51
44.999999999995389
  0
LINE
  5
C9
  8
0
 10
129.3298302790208
 20
-55.133702191164502
 30
0.0
 11
120.53668393408221
 21
-63.926848536101261
 31
0.0
  0
LINE
  5
CA
  8
0
 10
131.3662978088368
 20
-57.170169720979629
 30
0.0
 11
122.57315146389919
 21
-65.963316065918207
 31
0.0
  0
LINE
  5
CB
  8
0
 10
118.5760031548989
 20
-44.379875067042569
 30
0.0
 11
109.3361125200863
 21
-52.726277122106239
 31
0.0
  0
LINE
  5
CC
  8
0
 10
142.120124932957
 20
-67.923996845098827
 30
0.0
 11
133.7737228778924
 21
-77.163887479911409
 31
0.0
  0
LINE
  5
CD
  8
0
 10
97.074014119987623
 20
-22.8778860321313
 30
0.0
 11
87.379032750684019
 21
-30.769197352703941
 31
0.0
  0
LINE
  5
CE
  8
0
 10
95.419450320112446
 20
-21.22332223225612
 30
0.0
 11
85.724468950809751
 21
-29.11463355282876
 31
0.0
  0
LINE
  5
CF
  8
0
 10
163.622113967871
 20
-89.425985880013741
 30
0.0
 11
155.73080264729921
 21
-99.120967249317346
 31
0.0
  0
LINE
  5
D0
  8
0
 10
165.27667776774609
 20
-91.080549679888904
 30
0.0
 11
157.38536644717439
 21
-100.77553104919249
 31
0.0
  0
VIEWPORT
  5
1C1
 67
     1
  8
0
  6
CONTINUOUS
 10
128.5
 20
97.5
 30
0.0
 40
348.79216438356173
 41
222.18000000000001
 68
     1
 69
     1
1001
ACAD
1000
MVIEW
1002
{
1070
    16
1010
0.0
1020
0.0
1030
0.0
1010
0.0
1020
0.0
1030
1.0
1040
0.0
1040
222.18000000000001
1040
128.5
1040
97.5
1040
50.0
1040
0.0
1040
0.0
1070
     0
1070
  1000
1070
     1
1070
     1
1070
     0
1070
     0
1070
     0
1070
     0
1040
0.0
1040
0.0
1040
0.0
1040
10.0
1040
10.0
1040
10.0
1040
10.0
1070
     0
1002
{
1002
}
1002
}
  0
VIEWPORT
  5
1C5
 67
     1
  8
0
  6
CONTINUOUS
 10
128.5
 20
97.5
 30
0.0
 40
205.59999999999999
 41
156.0
 68
     2
 69
     2
1001
ACAD
1000
MVIEW
1002
{
1070
    16
1010
30714.317967474461
1020
7339.7553224022467
1030
0.0
1010
-38962.971254248441
1020
-38962.97125424847
1030
38962.97125424847
1040
0.0000000000000005
1040
279.84433402860009
1040
-16392.829682779109
1040
-15569.353911452061
1040
50.0
1040
0.0
1040
0.0
1070
     0
1070
  1000
1070
     1
1070
     3
1070
     0
1070
     0
1070
     0
1070
     0
1040
0.0
1040
0.0
1040
0.0
1040
10.0
1040
10.0
1040
10.0
1040
10.0
1070
     0
1002
{
1002
}
1002
}
  0
ENDSEC
  0
EOF
