  0
SECTION
  2
HEADER
  9
$ACADVER
  1
AC1009
  9
$INSBASE
 10
0.0
 20
0.0
 30
0.0
  9
$EXTMIN
 10
-66.475022670399994
 20
-204.5000000000002
 30
0.0
  9
$EXTMAX
 10
110.34131718058229
 20
0.0
 30
0.0
  9
$LIMMIN
 10
0.0
 20
0.0
  9
$LIMMAX
 10
420.0
 20
297.0
  9
$ORTHOMODE
 70
     0
  9
$REGENMODE
 70
     1
  9
$FILLMODE
 70
     1
  9
$QTEXTMODE
 70
     0
  9
$MIRRTEXT
 70
     0
  9
$DRAGMODE
 70
     2
  9
$LTSCALE
 40
1.0
  9
$OSMODE
 70
   127
  9
$ATTMODE
 70
     1
  9
$TEXTSIZE
 40
2.5
  9
$TRACEWID
 40
1.0
  9
$TEXTSTYLE
  7
STANDARD
  9
$CLAYER
  8
0
  9
$CELTYPE
  6
CONTINUOUS
  9
$CECOLOR
 62
   256
  9
$DIMSCALE
 40
1.0
  9
$DIMASZ
 40
2.5
  9
$DIMEXO
 40
0.625
  9
$DIMDLI
 40
3.75
  9
$DIMRND
 40
0.0
  9
$DIMDLE
 40
0.0
  9
$DIMEXE
 40
1.25
  9
$DIMTP
 40
0.0
  9
$DIMTM
 40
0.0
  9
$DIMTXT
 40
2.5
  9
$DIMCEN
 40
2.5
  9
$DIMTSZ
 40
0.0
  9
$DIMTOL
 70
     0
  9
$DIMLIM
 70
     0
  9
$DIMTIH
 70
     0
  9
$DIMTOH
 70
     0
  9
$DIMSE1
 70
     0
  9
$DIMSE2
 70
     0
  9
$DIMTAD
 70
     1
  9
$DIMZIN
 70
     8
  9
$DIMBLK
  1

  9
$DIMASO
 70
     1
  9
$DIMSHO
 70
     1
  9
$DIMPOST
  1

  9
$DIMAPOST
  1

  9
$DIMALT
 70
     0
  9
$DIMALTD
 70
     3
  9
$DIMALTF
 40
0.03937007874016
  9
$DIMLFAC
 40
1.0
  9
$DIMTOFL
 70
     1
  9
$DIMTVP
 40
0.0
  9
$DIMTIX
 70
     0
  9
$DIMSOXD
 70
     0
  9
$DIMSAH
 70
     0
  9
$DIMBLK1
  1

  9
$DIMBLK2
  1

  9
$DIMSTYLE
  2
STANDARD
  9
$DIMCLRD
 70
     0
  9
$DIMCLRE
 70
     0
  9
$DIMCLRT
 70
     0
  9
$DIMTFAC
 40
1.0
  9
$DIMGAP
 40
0.625
  9
$LUNITS
 70
     2
  9
$LUPREC
 70
     4
  9
$SKETCHINC
 40
1.0
  9
$FILLETRAD
 40
3.0
  9
$AUNITS
 70
     0
  9
$AUPREC
 70
     0
  9
$MENU
  1
.
  9
$ELEVATION
 40
0.0
  9
$PELEVATION
 40
0.0
  9
$THICKNESS
 40
0.0
  9
$LIMCHECK
 70
     0
  9
$BLIPMODE
 70
     0
  9
$CHAMFERA
 40
0.0
  9
$CHAMFERB
 40
0.0
  9
$SKPOLY
 70
     0
  9
$TDCREATE
 40
2455559.2317578131
  9
$TDUPDATE
 40
2457377.7266165279
  9
$TDINDWG
 40
2.9209172916999999
  9
$TDUSRTIMER
 40
2.9209133102
  9
$USRTIMER
 70
     1
  9
$ANGBASE
 50
0.0
  9
$ANGDIR
 70
     0
  9
$PDMODE
 70
     0
  9
$PDSIZE
 40
0.0
  9
$PLINEWID
 40
0.0
  9
$COORDS
 70
     2
  9
$SPLFRAME
 70
     0
  9
$SPLINETYPE
 70
     6
  9
$SPLINESEGS
 70
     8
  9
$ATTDIA
 70
     1
  9
$ATTREQ
 70
     1
  9
$HANDLING
 70
     1
  9
$HANDSEED
  5
2D9
  9
$SURFTAB1
 70
     6
  9
$SURFTAB2
 70
     6
  9
$SURFTYPE
 70
     6
  9
$SURFU
 70
     6
  9
$SURFV
 70
     6
  9
$UCSNAME
  2

  9
$UCSORG
 10
0.0
 20
0.0
 30
0.0
  9
$UCSXDIR
 10
1.0
 20
0.0
 30
0.0
  9
$UCSYDIR
 10
0.0
 20
1.0
 30
0.0
  9
$PUCSNAME
  2

  9
$PUCSORG
 10
0.0
 20
0.0
 30
0.0
  9
$PUCSXDIR
 10
1.0
 20
0.0
 30
0.0
  9
$PUCSYDIR
 10
0.0
 20
1.0
 30
0.0
  9
$USERI1
 70
     0
  9
$USERI2
 70
     0
  9
$USERI3
 70
     0
  9
$USERI4
 70
     0
  9
$USERI5
 70
     0
  9
$USERR1
 40
0.0
  9
$USERR2
 40
0.0
  9
$USERR3
 40
0.0
  9
$USERR4
 40
0.0
  9
$USERR5
 40
0.0
  9
$WORLDVIEW
 70
     1
  9
$SHADEDGE
 70
     3
  9
$SHADEDIF
 70
    70
  9
$TILEMODE
 70
     1
  9
$MAXACTVP
 70
    64
  9
$PLIMCHECK
 70
     0
  9
$PEXTMIN
 10
25.699999999999989
 20
19.5
 30
0.0
  9
$PEXTMAX
 10
231.30000000000001
 20
175.5
 30
0.0
  9
$PLIMMIN
 10
-20.0
 20
-7.5
  9
$PLIMMAX
 10
277.0
 20
202.5
  9
$UNITMODE
 70
     0
  9
$VISRETAIN
 70
     1
  9
$PLINEGEN
 70
     0
  9
$PSLTSCALE
 70
     1
  0
ENDSEC
  0
SECTION
  2
TABLES
  0
TABLE
  2
VPORT
 70
     1
  0
VPORT
  2
*ACTIVE
 70
     0
 10
0.0
 20
0.0
 11
1.0
 21
1.0
 12
16458.127776663969
 22
5824.9361560382022
 13
0.0
 23
0.0
 14
10.0
 24
10.0
 15
10.0
 25
10.0
 16
-38962.971254248441
 26
-38962.97125424847
 36
38962.97125424847
 17
30714.317967474461
 27
7339.7553224022467
 37
0.0
 40
45085.451174768772
 41
1.56986301369863
 42
50.0
 43
0.0
 44
0.0
 50
0.0
 51
0.0000000000000313
 71
     0
 72
  1000
 73
     1
 74
     3
 75
     0
 76
     0
 77
     0
 78
     0
  0
ENDTAB
  0
TABLE
  2
LTYPE
 70
     4
  0
LTYPE
  2
CONTINUOUS
 70
     0
  3
Solid line
 72
    65
 73
     0
 40
0.0
  0
ENDTAB
  0
TABLE
  2
LAYER
 70
    10
  0
LAYER
  2
0
 70
     0
 62
     7
  6
CONTINUOUS
  0
ENDTAB
  0
TABLE
  2
STYLE
 70
     4
  0
STYLE
  2
STANDARD
 70
     0
 40
0.0
 41
1.0
 50
0.0
 71
     0
 42
2.5
  3
txt
  4

  0
STYLE
  2
INSCRIPTIONS
 70
     0
 40
0.0
 41
0.9
 50
0.0
 71
     0
 42
2.5
  3
txt
  4

  0
ENDTAB
  0
TABLE
  2
VIEW
 70
     1
  0
ENDTAB
  0
TABLE
  2
UCS
 70
     0
  0
ENDTAB
  0
TABLE
  2
APPID
 70
     7
  0
APPID
  2
ACAD
 70
     0
  0
APPID
  2
ACAD_PSEXT
 70
     0
  0
APPID
  2
ACAECLAYERSTANDARD
 70
     0
  0
APPID
  2
ACAD_NAV_VCDISPLAY
 70
     0
  0
APPID
  2
REVIT
 70
     0
  0
APPID
  2
ACAD_EXEMPT_FROM_CAD_STANDARDS
 70
     0
  0
APPID
  2
ACAD_MLEADERVER
 70
     0
  0
ENDTAB
  0
TABLE
  2
DIMSTYLE
 70
     1
  0
DIMSTYLE
  2
STANDARD
 70
     0
  3

  4

  5

  6

  7

 40
1.0
 41
0.18
 42
0.0625
 43
0.38
 44
0.18
 45
0.0
 46
0.0
 47
0.0
 48
0.0
140
0.18
141
0.09
142
0.0
143
25.399999999999999
144
1.0
145
0.0
146
1.0
147
0.09
 71
     0
 72
     0
 73
     1
 74
     1
 75
     0
 76
     0
 77
     0
 78
     0
170
     0
171
     2
172
     0
173
     0
174
     0
175
     0
176
     0
177
     0
178
     0
  0
ENDTAB
  0
ENDSEC
  0
SECTION
  2
BLOCKS
  0
BLOCK
  8
0
  2
$MODEL_SPACE
 70
     0
 10
0.0
 20
0.0
 30
0.0
  3
$MODEL_SPACE
  1

  0
ENDBLK
  5
D
  8
0
  0
BLOCK
 67
     1
  8
0
  2
$PAPER_SPACE
 70
     0
 10
0.0
 20
0.0
 30
0.0
  3
$PAPER_SPACE
  1

  0
ENDBLK
  5
1BF
 67
     1
  8
0
  0
BLOCK
  8
0
  2
*U2
 70
     1
 10
0.0
 20
0.0
 30
0.0
  3
*U2
  1

  0
TEXT
  5
255
  8
0
  6
CONTINUOUS
 10
-28.274320855833139
 20
-41.725765796590991
 30
0.0
 40
20.020769999999992
  1
110
 41
0.8
  7
INSCRIPTIONS
  0
ENDBLK
  5
257
  8
0
  0
BLOCK
  8
0
  2
*U3
 70
     1
 10
0.0
 20
0.0
 30
0.0
  3
*U3
  1

  0
TEXT
  5
268
  8
0
  6
CONTINUOUS
 10
8.9295079652692948
 20
-30.141160189085529
 30
0.0
 40
8.0999999999999996
  1
87.5°
 41
0.7
  7
INSCRIPTIONS
  0
ENDBLK
  5
26A
  8
0
  0
BLOCK
  8
0
  2
*U4
 70
     1
 10
0.0
 20
0.0
 30
0.0
  3
*U4
  1

  0
TEXT
  5
26C
  8
0
  6
CONTINUOUS
 10
6.991397918896836
 20
-41.119238094727137
 30
0.0
 40
8.0999999999999996
  1
PP-MD
 41
0.6
  7
INSCRIPTIONS
  0
ENDBLK
  5
26E
  8
0
  0
BLOCK
  8
0
  2
*U5
 70
     1
 10
0.0
 20
0.0
 30
0.0
  3
*U5
  1

  0
TEXT
  5
27F
  8
0
  6
CONTINUOUS
 10
70.335715346825225
 20
-88.486744928851934
 30
0.0
 40
18.710999999999999
  1
75
 50
272.50000000000023
 41
0.8
  7
INSCRIPTIONS
  0
ENDBLK
  5
281
  8
0
  0
ENDSEC
  0
SECTION
  2
ENTITIES
  0
LINE
  5
4B
  8
0
 10
0.0
 20
0.0
 30
0.0
 11
-0.000000000003638
 21
-101.8649475397028
 31
0.0
  0
LINE
  5
4F
  8
0
 10
-0.000000000003638
 20
-101.8649475397028
 30
0.0
 11
-0.000000000001819
 21
-204.5000000000002
 31
0.0
  0
LINE
  5
50
  8
0
 10
58.411999999999352
 20
-46.5
 30
0.0
 11
-58.4120000000039
 21
-46.50000000000022
 31
0.0
  0
LINE
  5
52
  8
0
 10
-55.100000000002183
 20
-60.900000000000311
 30
0.0
 11
-27.905619517543531
 21
-60.900000000000311
 31
0.0
  0
LINE
  5
53
  8
0
 10
27.905619517536248
 20
-60.900000000000311
 30
0.0
 11
55.099999999996719
 21
-60.900000000000091
 31
0.0
  0
ARC
  5
54
  8
0
 10
-0.000000000003638
 20
-39.238466151533203
 30
0.0
 40
38.954503636548402
 50
239.34608426254911
 51
300.65391573744421
  0
ARC
  5
55
  8
0
 10
-0.000000000003638
 20
-39.238466151533203
 30
0.0
 40
41.834503636548398
 50
239.34608426254911
 51
300.65391573744421
  0
ARC
  5
56
  8
0
 10
14.72169901884536
 20
-64.078122716230382
 30
0.0
 40
10.08
 50
300.65391573744421
 51
356.4236656249962
  0
ARC
  5
57
  8
0
 10
14.72169901884536
 20
-64.078122716230382
 30
0.0
 40
12.960000000000001
 50
300.65391573744421
 51
356.4236656249962
  0
ARC
  5
58
  8
0
 10
-14.72169901885627
 20
-64.078122716228791
 30
0.0
 40
10.08
 50
183.5763343750038
 51
239.34608426254911
  0
ARC
  5
59
  8
0
 10
-14.72169901885627
 20
-64.078122716228791
 30
0.0
 40
12.960000000000001
 50
183.5763343750038
 51
239.34608426254911
  0
LINE
  5
5A
  8
0
 10
-24.782069009963379
 20
-64.706895840673042
 30
0.0
 11
-25.82801849066982
 21
-47.971704149396821
 31
0.0
  0
LINE
  5
5B
  8
0
 10
-27.656460435995541
 20
-64.886545304799938
 30
0.0
 11
-28.713638008206551
 21
-47.971704149396821
 31
0.0
  0
LINE
  5
5C
  8
0
 10
24.782069009952458
 20
-64.706895840674633
 30
0.0
 11
25.828018490658
 21
-47.971704149396587
 31
0.0
  0
LINE
  5
5D
  8
0
 10
27.656460435984631
 20
-64.88654530480153
 30
0.0
 11
28.713638008199268
 21
-47.971704149396587
 31
0.0
  0
LINE
  5
5E
  8
0
 10
-28.713638008206551
 20
-47.971704149396821
 30
0.0
 11
-25.82801849066982
 21
-47.971704149396821
 31
0.0
  0
LINE
  5
5F
  8
0
 10
25.828018490658
 20
-47.971704149396821
 30
0.0
 11
28.713638008199268
 21
-47.971704149396821
 31
0.0
  0
LINE
  5
60
  8
0
 10
24.984843604966951
 20
-61.462502320439619
 30
0.0
 11
13.044175147004349
 21
-61.462502320439619
 31
0.0
  0
LINE
  5
61
  8
0
 10
24.984843604966951
 20
-60.022502320439798
 30
0.0
 11
13.044175147004349
 21
-60.022502320439571
 31
0.0
  0
LINE
  5
62
  8
0
 10
11.686043102430631
 20
-62.42388206438909
 30
0.0
 11
6.3101568683632641
 21
-77.678487923983084
 31
0.0
  0
LINE
  5
63
  8
0
 10
10.327911057856911
 20
-61.9452618083385
 30
0.0
 11
4.7024368161255552
 21
-77.908098184436767
 31
0.0
  0
ARC
  5
64
  8
0
 10
13.044175147004349
 20
-62.90250232043968
 30
0.0
 40
2.879999999999999
 50
90.0
 51
160.58699732406811
  0
ARC
  5
65
  8
0
 10
13.044175147004349
 20
-62.90250232043968
 30
0.0
 40
1.4399999999998361
 50
90.0
 51
160.58699732406811
  0
LINE
  5
66
  8
0
 10
17.52383607688898
 20
-64.184837126332013
 30
0.0
 11
15.53898039030719
 21
-69.817060329844935
 31
0.0
  0
LINE
  5
67
  8
0
 10
19.042588166783389
 20
-64.720061603985641
 30
0.0
 11
17.057732480205232
 21
-70.352284807499473
 31
0.0
  0
LINE
  5
68
  8
0
 10
17.52383607688898
 20
-64.184837126332013
 30
0.0
 11
19.042588166783389
 21
-64.720061603985641
 31
0.0
  0
LINE
  5
69
  8
0
 10
15.538980390309
 20
-69.817060329845162
 30
0.0
 11
17.057732480205232
 21
-70.352284807499473
 31
0.0
  0
LINE
  5
6A
  8
0
 10
15.363361856458139
 20
-70.315395190160189
 30
0.0
 11
16.88211394635255
 21
-70.850619667813817
 31
0.0
  0
LINE
  5
6B
  8
0
 10
15.36336185645996
 20
-70.315395190160189
 30
0.0
 11
15.73222317512227
 21
-71.691131368455217
 31
0.0
  0
LINE
  5
6C
  8
0
 10
15.73222317512227
 20
-71.691131368455217
 30
0.0
 11
16.88211394635255
 21
-70.850619667813817
 31
0.0
  0
LINE
  5
6D
  8
0
 10
55.099999999996719
 20
-60.900000000000091
 30
0.0
 11
58.411999999999352
 21
-46.5
 31
0.0
  0
LINE
  5
6E
  8
0
 10
-55.100000000002183
 20
-60.900000000000311
 30
0.0
 11
-58.4120000000039
 21
-46.50000000000022
 31
0.0
  0
LINE
  5
6F
  8
0
 10
-55.100000000002183
 20
-60.900000000000311
 30
0.0
 11
-55.100000000002183
 21
-197.06675644588881
 31
0.0
  0
LINE
  5
70
  8
0
 10
55.099999999996719
 20
-60.899999999999856
 30
0.0
 11
55.099999999996719
 21
-61.172668658380871
 31
0.0
  0
LINE
  5
71
  8
0
 10
55.099999999996719
 20
-136.8301982763989
 30
0.0
 11
55.099999999996719
 21
-197.06675644588881
 31
0.0
  0
INSERT
  5
72
  8
0
  6
CONTINUOUS
  2
*U2
 10
0.0
 20
0.0
 30
0.0
  0
POLYLINE
  5
75
  8
0
 66
     1
 10
0.0
 20
0.0
 30
0.0
 70
     1
  0
VERTEX
  5
258
  8
0
 10
-30.83139798706361
 20
-23.20496074307562
 30
0.0
  0
VERTEX
  5
259
  8
0
 10
-37.988558623670542
 20
-23.204960743075159
 30
0.0
  0
VERTEX
  5
25A
  8
0
 10
-37.988558623670542
 20
-25.562035477518521
 30
0.0
  0
VERTEX
  5
25B
  8
0
 10
-30.83139798706361
 20
-25.562035477518521
 30
0.0
  0
SEQEND
  5
25C
  8
0
  0
POLYLINE
  5
76
  8
0
 66
     1
 10
0.0
 20
0.0
 30
0.0
 70
     1
  0
VERTEX
  5
25D
  8
0
 10
-30.225647733783259
 20
-41.163814573362053
 30
0.0
  0
VERTEX
  5
25E
  8
0
 10
-34.484310350994747
 20
-41.163814573361599
 30
0.0
  0
VERTEX
  5
25F
  8
0
 10
-34.484310350994747
 20
-40.022607032962462
 30
0.0
  0
VERTEX
  5
260
  8
0
 10
-30.225647733782349
 20
-40.022607032962462
 30
0.0
  0
SEQEND
  5
261
  8
0
  0
LINE
  5
77
  8
0
 10
-30.575566742927549
 20
-33.433244112027978
 30
0.0
 11
-36.299920045066763
 21
-33.433244112027978
 31
0.0
  0
POLYLINE
  5
78
  8
0
 66
     1
 10
0.0
 20
0.0
 30
0.0
 70
     1
  0
VERTEX
  5
262
  8
0
 10
-30.575566742927549
 20
-33.433244112027978
 30
0.0
  0
VERTEX
  5
263
  8
0
 10
-36.732054504364903
 20
-33.433244112027978
 30
0.0
  0
VERTEX
  5
264
  8
0
 10
-36.732054504365813
 20
-31.871773779078239
 30
0.0
  0
VERTEX
  5
265
  8
0
 10
-30.575566742927549
 20
-31.871773779077781
 30
0.0
  0
SEQEND
  5
266
  8
0
  0
INSERT
  5
79
  8
0
  6
CONTINUOUS
  2
*U3
 10
0.0
 20
0.0
 30
0.0
  0
INSERT
  5
7A
  8
0
  6
CONTINUOUS
  2
*U4
 10
0.0
 20
0.0
 30
0.0
  0
POLYLINE
  5
7B
  8
0
 66
     1
 10
0.0
 20
0.0
 30
0.0
 70
     1
  0
VERTEX
  5
26F
  8
0
 10
30.831397987056341
 20
-23.204960743074931
 30
0.0
  0
VERTEX
  5
270
  8
0
 10
37.988558623663273
 20
-23.204960743074711
 30
0.0
  0
VERTEX
  5
271
  8
0
 10
37.988558623663273
 20
-25.562035477517611
 30
0.0
  0
VERTEX
  5
272
  8
0
 10
30.831397987056341
 20
-25.562035477517838
 30
0.0
  0
SEQEND
  5
273
  8
0
  0
POLYLINE
  5
7C
  8
0
 66
     1
 10
0.0
 20
0.0
 30
0.0
 70
     1
  0
VERTEX
  5
274
  8
0
 10
30.22564773377599
 20
-41.163814573361378
 30
0.0
  0
VERTEX
  5
275
  8
0
 10
34.48431035098838
 20
-41.163814573361151
 30
0.0
  0
VERTEX
  5
276
  8
0
 10
34.48431035098838
 20
-40.02260703296156
 30
0.0
  0
VERTEX
  5
277
  8
0
 10
30.22564773377599
 20
-40.022607032961787
 30
0.0
  0
SEQEND
  5
278
  8
0
  0
LINE
  5
7D
  8
0
 10
30.575566742921179
 20
-33.433244112027531
 30
0.0
 11
36.299920045060389
 21
-33.433244112027531
 31
0.0
  0
POLYLINE
  5
7E
  8
0
 66
     1
 10
0.0
 20
0.0
 30
0.0
 70
     1
  0
VERTEX
  5
279
  8
0
 10
30.575566742921179
 20
-33.433244112027531
 30
0.0
  0
VERTEX
  5
27A
  8
0
 10
36.73205450435853
 20
-33.433244112027531
 30
0.0
  0
VERTEX
  5
27B
  8
0
 10
36.73205450435853
 20
-31.87177377907733
 30
0.0
  0
VERTEX
  5
27C
  8
0
 10
30.575566742921179
 20
-31.87177377907733
 30
0.0
  0
SEQEND
  5
27D
  8
0
  0
LINE
  5
7F
  8
0
 10
52.804119648240892
 20
-204.4999999999998
 30
0.0
 11
-52.804119648244523
 21
-204.5000000000002
 31
0.0
  0
LINE
  5
80
  8
0
 10
55.099999999998552
 20
-197.06675644588881
 30
0.0
 11
-55.100000000002183
 21
-197.06675644588881
 31
0.0
  0
LINE
  5
81
  8
0
 10
-55.100000000002183
 20
-197.06675644588881
 30
0.0
 11
-52.804119648244523
 21
-204.4999999999998
 31
0.0
  0
LINE
  5
82
  8
0
 10
55.099999999998552
 20
-197.06675644588881
 30
0.0
 11
52.804119648240892
 21
-204.4999999999998
 31
0.0
  0
LINE
  5
83
  8
0
 10
52.804119648240892
 20
-145.4999999999998
 30
0.0
 11
-52.804119648244523
 21
-145.5000000000002
 31
0.0
  0
LINE
  5
86
  8
0
 10
108.5965416859671
 20
-96.758572593387726
 30
0.0
 11
-0.0000000000027285
 21
-101.50000000000129
 31
0.0
  0
LINE
  5
87
  8
0
 10
57.591151312277361
 20
-136.72143226117731
 30
0.0
 11
55.099999999996719
 21
-136.83019827639939
 31
0.0
  0
LINE
  5
88
  8
0
 10
67.681958119036608
 20
-138.58304929716331
 30
0.0
 11
64.192407129808998
 21
-58.659191570613068
 31
0.0
  0
LINE
  5
89
  8
0
 10
54.319241979273102
 20
-61.782388002327252
 30
0.0
 11
57.591151312277361
 21
-136.72143226117731
 31
0.0
  0
LINE
  5
8A
  8
0
 10
57.591151312277361
 20
-136.72143226117731
 30
0.0
 11
67.681958119036608
 21
-138.58304929716331
 31
0.0
  0
LINE
  5
8B
  8
0
 10
55.099999999996719
 20
-61.172668658381099
 30
0.0
 11
64.192407129808998
 21
-58.659191570613068
 31
0.0
  0
INSERT
  5
8C
  8
0
  6
CONTINUOUS
  2
*U5
 10
0.0
 20
0.0
 30
0.0
  0
POLYLINE
  5
8D
  8
0
 66
     1
 10
0.0
 20
0.0
 30
0.0
 70
     1
  0
VERTEX
  5
282
  8
0
 10
87.270382295844684
 20
-84.909369707798746
 30
0.0
  0
VERTEX
  5
283
  8
0
 10
86.958191333600553
 20
-77.759021102220458
 30
0.0
  0
VERTEX
  5
284
  8
0
 10
84.603360012019934
 20
-77.861835258111341
 30
0.0
  0
VERTEX
  5
285
  8
0
 10
84.915550974264079
 20
-85.012183863689643
 30
0.0
  0
SEQEND
  5
286
  8
0
  0
POLYLINE
  5
8E
  8
0
 66
     1
 10
0.0
 20
0.0
 30
0.0
 70
     1
  0
VERTEX
  5
287
  8
0
 10
70.711930411391222
 20
-86.238654672739145
 30
0.0
  0
VERTEX
  5
288
  8
0
 10
70.526170157032539
 20
-81.984045358695766
 30
0.0
  0
VERTEX
  5
289
  8
0
 10
71.666291520725281
 20
-81.934266584926945
 30
0.0
  0
VERTEX
  5
28A
  8
0
 10
71.852051775083964
 20
-86.188875898970309
 30
0.0
  0
SEQEND
  5
28B
  8
0
  0
LINE
  5
8F
  8
0
 10
77.838356983479571
 20
-85.577255797240014
 30
0.0
 11
77.58866419937749
 21
-79.858350811031414
 31
0.0
  0
POLYLINE
  5
90
  8
0
 66
     1
 10
0.0
 20
0.0
 30
0.0
 70
     1
  0
VERTEX
  5
28C
  8
0
 10
77.838356983479571
 20
-85.577255797240014
 30
0.0
  0
VERTEX
  5
28D
  8
0
 10
77.569814759002838
 20
-79.42662764798547
 30
0.0
  0
VERTEX
  5
28E
  8
0
 10
79.129798918189408
 20
-79.35851726867304
 30
0.0
  0
VERTEX
  5
28F
  8
0
 10
79.39834114266705
 20
-85.509145417927584
 30
0.0
  0
SEQEND
  5
290
  8
0
  0
POLYLINE
  5
91
  8
0
 66
     1
 10
0.0
 20
0.0
 30
0.0
 70
     1
  0
VERTEX
  5
291
  8
0
 10
88.369794974341843
 20
-110.0900599370739
 30
0.0
  0
VERTEX
  5
292
  8
0
 10
88.681985936585988
 20
-117.2404085426522
 30
0.0
  0
VERTEX
  5
293
  8
0
 10
86.327154615006279
 20
-117.343222698543
 30
0.0
  0
VERTEX
  5
294
  8
0
 10
86.014963652762177
 20
-110.1928740929647
 30
0.0
  0
SEQEND
  5
295
  8
0
  0
POLYLINE
  5
92
  8
0
 66
     1
 10
0.0
 20
0.0
 30
0.0
 70
     1
  0
VERTEX
  5
296
  8
0
 10
71.758498179999151
 20
-110.2089974754883
 30
0.0
  0
VERTEX
  5
297
  8
0
 10
71.944258434357835
 20
-114.4636067895317
 30
0.0
  0
VERTEX
  5
298
  8
0
 10
73.084379798050577
 20
-114.4138280157628
 30
0.0
  0
VERTEX
  5
299
  8
0
 10
72.898619543691893
 20
-110.1592187017195
 30
0.0
  0
SEQEND
  5
29A
  8
0
  0
LINE
  5
93
  8
0
 10
78.915451257700624
 20
-110.2467705275576
 30
0.0
 11
79.165144041802705
 21
-115.9656755137662
 31
0.0
  0
POLYLINE
  5
94
  8
0
 66
     1
 10
0.0
 20
0.0
 30
0.0
 70
     1
  0
VERTEX
  5
29B
  8
0
 10
78.915451257700624
 20
-110.2467705275576
 30
0.0
  0
VERTEX
  5
29C
  8
0
 10
79.183993482176433
 20
-116.3973986768121
 30
0.0
  0
VERTEX
  5
29D
  8
0
 10
80.743977641363017
 20
-116.3292882974997
 30
0.0
  0
VERTEX
  5
29E
  8
0
 10
80.475435416887194
 20
-110.1786601482451
 30
0.0
  0
SEQEND
  5
29F
  8
0
  0
ARC
  5
95
  8
0
 10
84.21795075890077
 20
-101.9984922003229
 30
0.0
 40
50.14581661789645
 50
125.4973711159308
 51
177.72813781592981
  0
ARC
  5
96
  8
0
 10
75.888200427084485
 20
-100.588330445707
 30
0.0
 40
41.780644572027818
 50
179.2077845594936
 51
240.16157819169831
  0
LINE
  5
97
  8
0
 10
55.099999999996719
 20
-17.9647538431127
 30
0.0
 11
-55.100000000003092
 21
-17.964753843113609
 31
0.0
  0
LINE
  5
98
  8
0
 10
-65.612000000001899
 20
-17.9647538431127
 30
0.0
 11
65.611999999995533
 21
-17.964753843113609
 31
0.0
  0
LINE
  5
99
  8
0
 10
-58.412000000002081
 20
0.0
 30
0.0
 11
-58.412000000002081
 21
-2.159999999999854
 31
0.0
  0
LINE
  5
9A
  8
0
 10
-58.411999999999352
 20
-14.595386816942661
 30
0.0
 11
-58.412000000000262
 21
-15.08475384311259
 31
0.0
  0
LINE
  5
9B
  8
0
 10
-58.41200000000299
 20
-20.881728076453332
 30
0.0
 11
-58.412000000000262
 21
-46.499999999999083
 31
0.0
  0
LINE
  5
9C
  8
0
 10
58.412000000000262
 20
0.0
 30
0.0
 11
58.412000000000262
 21
-2.159999999999854
 31
0.0
  0
LINE
  5
9D
  8
0
 10
58.411999999997533
 20
-14.595386816942661
 30
0.0
 11
58.411999999999352
 21
-15.08475384311259
 31
0.0
  0
LINE
  5
9E
  8
0
 10
58.411999999999352
 20
-20.881728076458788
 30
0.0
 11
58.411999999999352
 21
-46.5
 31
0.0
  0
LINE
  5
9F
  8
0
 10
-65.612000000000975
 20
-15.08475384311259
 30
0.0
 11
65.611999999997352
 21
-15.08475384311259
 31
0.0
  0
LINE
  5
A0
  8
0
 10
-65.612000000001899
 20
-15.08475384311259
 30
0.0
 11
-65.612000000002809
 21
-17.9647538431127
 31
0.0
  0
LINE
  5
A1
  8
0
 10
65.611999999997352
 20
-15.08475384311259
 30
0.0
 11
65.611999999996442
 21
-17.9647538431127
 31
0.0
  0
LINE
  5
A2
  8
0
 10
-63.993480370560057
 20
-2.159999999999854
 30
0.0
 11
-0.000000000003638
 21
-2.159999999999854
 31
0.0
  0
LINE
  5
A3
  8
0
 10
-0.000000000003638
 20
-14.595386816942661
 30
0.0
 11
-66.475022670399994
 21
-14.595386816942661
 31
0.0
  0
LINE
  5
A4
  8
0
 10
-66.475022670399994
 20
-14.595386816942661
 30
0.0
 11
-63.993480370560057
 21
-2.159999999999854
 31
0.0
  0
LINE
  5
A5
  8
0
 10
63.993480370558238
 20
-2.159999999999854
 30
0.0
 11
-0.000000000003638
 21
-2.159999999999854
 31
0.0
  0
LINE
  5
A6
  8
0
 10
-0.000000000003638
 20
-14.595386816942661
 30
0.0
 11
66.475022670399085
 21
-14.595386816942661
 31
0.0
  0
LINE
  5
A7
  8
0
 10
66.475022670399085
 20
-14.595386816942661
 30
0.0
 11
63.993480370558238
 21
-2.159999999999854
 31
0.0
  0
LINE
  5
A8
  8
0
 10
-58.411999999999352
 20
0.0
 30
0.0
 11
-58.412000000002081
 21
-2.159999999999854
 31
0.0
  0
LINE
  5
A9
  8
0
 10
-58.412000000000262
 20
-20.881728076453332
 30
0.0
 11
-58.412000000000262
 21
-46.499999999999083
 31
0.0
  0
LINE
  5
AA
  8
0
 10
-58.412000000000262
 20
0.0
 30
0.0
 11
58.411999999999352
 21
0.0
 31
0.0
  0
ARC
  5
AB
  8
0
 10
61.328974233345441
 20
-20.881728076458788
 30
0.0
 40
2.91697423334579
 50
90.0
 51
180.0
  0
ARC
  5
AC
  8
0
 10
-61.328974233349072
 20
-20.881728076453332
 30
0.0
 40
2.91697423334579
 50
0.0
 51
90.0
  0
LINE
  5
AD
  8
0
 10
-1.4400000000005091
 20
-2.159999999999854
 30
0.0
 11
-1.4400000000023281
 21
-14.595386816942661
 31
0.0
  0
LINE
  5
AF
  8
0
 10
1.4399999999968709
 20
-2.159999999999854
 30
0.0
 11
1.4399999999968709
 21
-14.595386816942661
 31
0.0
  0
LINE
  5
B0
  8
0
 10
-16.648208166349828
 20
-2.159999999999854
 30
0.0
 11
-17.28000000000247
 21
-14.595386816942661
 31
0.0
  0
LINE
  5
B1
  8
0
 10
16.648208166342549
 20
-2.159999999999854
 30
0.0
 11
17.279999999995201
 21
-14.595386816942661
 31
0.0
  0
LINE
  5
B2
  8
0
 10
-47.05661267751838
 20
-2.159999999999854
 30
0.0
 11
-48.331999999999418
 21
-14.595386816942661
 31
0.0
  0
LINE
  5
B3
  8
0
 10
-49.396519243113289
 20
-2.159999999999854
 30
0.0
 11
-50.67190656559432
 21
-14.595386816942661
 31
0.0
  0
LINE
  5
B4
  8
0
 10
47.056612677516569
 20
-2.159999999999854
 30
0.0
 11
48.331999999997599
 21
-14.595386816942661
 31
0.0
  0
LINE
  5
B5
  8
0
 10
49.39651924311147
 20
-2.159999999999854
 30
0.0
 11
50.671906565592508
 21
-14.595386816942661
 31
0.0
  0
LINE
  5
B6
  8
0
 10
93.982391978919622
 20
-135.1325563800599
 30
0.0
 11
90.693490171572194
 21
-59.804320472788049
 31
0.0
  0
LINE
  5
B7
  8
0
 10
90.375068643805207
 20
-52.511268455241179
 30
0.0
 11
94.300813506686609
 21
-142.42560839760671
 31
0.0
  0
LINE
  5
B8
  8
0
 10
106.8517661913538
 20
-56.796643730113601
 30
0.0
 11
105.3531938589813
 21
-56.862072811161617
 31
0.0
  0
LINE
  5
B9
  8
0
 10
92.93077678573718
 20
-57.404447253784163
 30
0.0
 11
92.591262023795935
 21
-57.419270788421038
 31
0.0
  0
LINE
  5
BA
  8
0
 10
110.34131718058229
 20
-136.7205014566641
 30
0.0
 11
108.84274484820889
 21
-136.78593053771209
 31
0.0
  0
LINE
  5
BB
  8
0
 10
96.420327774964804
 20
-137.32830498033101
 30
0.0
 11
96.080813013022635
 21
-137.34312851496969
 31
0.0
  0
LINE
  5
BC
  8
0
 10
92.058968014147467
 20
-137.5187260598529
 30
0.0
 11
67.681958119036608
 21
-138.58304929716331
 31
0.0
  0
LINE
  5
BD
  8
0
 10
92.373165086968584
 20
-52.424029680511701
 30
0.0
 11
96.298909949849985
 21
-142.33836962287819
 31
0.0
  0
LINE
  5
BE
  8
0
 10
92.373165086968584
 20
-52.424029680510777
 30
0.0
 11
90.375068643805207
 21
-52.511268455240263
 31
0.0
  0
LINE
  5
BF
  8
0
 10
96.298909949849985
 20
-142.33836962287819
 30
0.0
 11
94.300813506686609
 21
-142.42560839760759
 31
0.0
  0
LINE
  5
C0
  8
0
 10
105.1841238906791
 20
-52.989733895884228
 30
0.0
 11
107.0979693535955
 21
-96.824001674437341
 31
0.0
  0
LINE
  5
C1
  8
0
 10
94.67555228035053
 20
-97.366376117058053
 30
0.0
 11
92.686537821017737
 21
-51.810455268063151
 31
0.0
  0
LINE
  5
C2
  8
0
 10
92.686537821017737
 20
-51.810455268063151
 30
0.0
 11
105.1841238906791
 21
-52.989733895884228
 31
0.0
  0
LINE
  5
C3
  8
0
 10
109.01181481651111
 20
-140.6582694529904
 30
0.0
 11
107.0979693535955
 21
-96.824001674437341
 31
0.0
  0
LINE
  5
C4
  8
0
 10
94.67555228035053
 20
-97.366376117058053
 30
0.0
 11
96.664566739684247
 21
-142.92229696605199
 31
0.0
  0
LINE
  5
C5
  8
0
 10
96.664566739684247
 20
-142.92229696605199
 30
0.0
 11
109.01181481651111
 21
-140.6582694529904
 31
0.0
  0
LINE
  5
C6
  8
0
 10
106.8517661913538
 20
-56.79664373011542
 30
0.0
 11
105.3531938589813
 21
-56.862072811161617
 31
0.0
  0
LINE
  5
C7
  8
0
 10
88.569417024924405
 20
-57.594868333304241
 30
0.0
 11
64.192407129808998
 21
-58.659191570614659
 31
0.0
  0
LINE
  5
C8
  8
0
 10
106.8517661913538
 20
-56.796643730114511
 30
0.0
 11
110.34131718058229
 21
-136.72050145666319
 31
0.0
  0
ARC
  5
C9
  8
0
 10
92.147326784300276
 20
-139.54247461556469
 30
0.0
 40
2.025676550934576
 50
2.499999999992486
 51
92.500000000017948
  0
ARC
  5
CA
  8
0
 10
88.481058254771597
 20
-55.571119777591548
 30
0.0
 40
2.025676550934576
 50
272.50000000001791
 51
2.499999999992486
  0
LINE
  5
CB
  8
0
 10
107.05434996622991
 20
-95.824953452857486
 30
0.0
 11
94.631932892985773
 21
-96.367327895477274
 31
0.0
  0
LINE
  5
CC
  8
0
 10
107.1415887409603
 20
-97.823049896019043
 30
0.0
 11
94.719171667716182
 21
-98.365424338639755
 31
0.0
  0
LINE
  5
CD
  8
0
 10
106.5936744640494
 20
-85.273749756997617
 30
0.0
 11
94.152119631966343
 21
-85.377797458076884
 31
0.0
  0
LINE
  5
CE
  8
0
 10
107.6022642431417
 20
-108.37425359187699
 30
0.0
 11
95.198984928734717
 21
-109.35495477603919
 31
0.0
  0
LINE
  5
CF
  8
0
 10
105.6971626355807
 20
-64.74025302637051
 30
0.0
 11
93.236112497294016
 21
-64.397784804857793
 31
0.0
  0
LINE
  5
D0
  8
0
 10
105.62628396135641
 20
-63.116864489547652
 30
0.0
 11
93.165233823069684
 21
-62.774396268034927
 31
0.0
  0
LINE
  5
D1
  8
0
 10
108.49877607161029
 20
-128.9077503225032
 30
0.0
 11
96.114992063407044
 21
-130.33496742925831
 31
0.0
  0
LINE
  5
D2
  8
0
 10
108.5696547458346
 20
-130.531138859327
 30
0.0
 11
96.185870737631376
 21
-131.95835596608109
 31
0.0
  0
VIEWPORT
  5
1C3
 67
     1
  8
0
  6
CONTINUOUS
 10
128.5
 20
97.5
 30
0.0
 40
348.79216438356173
 41
222.18000000000001
 68
     1
 69
     1
1001
ACAD
1000
MVIEW
1002
{
1070
    16
1010
0.0
1020
0.0
1030
0.0
1010
0.0
1020
0.0
1030
1.0
1040
0.0
1040
222.18000000000001
1040
128.5
1040
97.5
1040
50.0
1040
0.0
1040
0.0
1070
     0
1070
  1000
1070
     1
1070
     1
1070
     0
1070
     0
1070
     0
1070
     0
1040
0.0
1040
0.0
1040
0.0
1040
10.0
1040
10.0
1040
10.0
1040
10.0
1070
     0
1002
{
1002
}
1002
}
  0
VIEWPORT
  5
1C7
 67
     1
  8
0
  6
CONTINUOUS
 10
128.5
 20
97.5
 30
0.0
 40
205.59999999999999
 41
156.0
 68
     2
 69
     2
1001
ACAD
1000
MVIEW
1002
{
1070
    16
1010
30714.317967474461
1020
7339.7553224022467
1030
0.0
1010
-38962.971254248441
1020
-38962.97125424847
1030
38962.97125424847
1040
0.0000000000000005
1040
206.40263863631199
1040
-16440.50100806716
1040
-15568.29958360727
1040
50.0
1040
0.0
1040
0.0
1070
     0
1070
  1000
1070
     1
1070
     3
1070
     0
1070
     0
1070
     0
1070
     0
1040
0.0
1040
0.0
1040
0.0
1040
10.0
1040
10.0
1040
10.0
1040
10.0
1070
     0
1002
{
1002
}
1002
}
  0
ENDSEC
  0
EOF
