  0
SECTION
  2
HEADER
  9
$ACADVER
  1
AC1009
  9
$INSBASE
 10
0.0
 20
0.0
 30
0.0
  9
$EXTMIN
 10
-32.799321298888572
 20
-152.5
 30
0.0
  9
$EXTMAX
 10
72.91810964591059
 20
0.0
 30
0.0
  9
$LIMMIN
 10
0.0
 20
0.0
  9
$LIMMAX
 10
420.0
 20
297.0
  9
$ORTHOMODE
 70
     0
  9
$REGENMODE
 70
     1
  9
$FILLMODE
 70
     1
  9
$QTEXTMODE
 70
     0
  9
$MIRRTEXT
 70
     0
  9
$DRAGMODE
 70
     2
  9
$LTSCALE
 40
1.0
  9
$OSMODE
 70
   127
  9
$ATTMODE
 70
     1
  9
$TEXTSIZE
 40
2.5
  9
$TRACEWID
 40
1.0
  9
$TEXTSTYLE
  7
STANDARD
  9
$CLAYER
  8
0
  9
$CELTYPE
  6
CONTINUOUS
  9
$CECOLOR
 62
   256
  9
$DIMSCALE
 40
1.0
  9
$DIMASZ
 40
2.5
  9
$DIMEXO
 40
0.625
  9
$DIMDLI
 40
3.75
  9
$DIMRND
 40
0.0
  9
$DIMDLE
 40
0.0
  9
$DIMEXE
 40
1.25
  9
$DIMTP
 40
0.0
  9
$DIMTM
 40
0.0
  9
$DIMTXT
 40
2.5
  9
$DIMCEN
 40
2.5
  9
$DIMTSZ
 40
0.0
  9
$DIMTOL
 70
     0
  9
$DIMLIM
 70
     0
  9
$DIMTIH
 70
     0
  9
$DIMTOH
 70
     0
  9
$DIMSE1
 70
     0
  9
$DIMSE2
 70
     0
  9
$DIMTAD
 70
     1
  9
$DIMZIN
 70
     8
  9
$DIMBLK
  1

  9
$DIMASO
 70
     1
  9
$DIMSHO
 70
     1
  9
$DIMPOST
  1

  9
$DIMAPOST
  1

  9
$DIMALT
 70
     0
  9
$DIMALTD
 70
     3
  9
$DIMALTF
 40
0.03937007874016
  9
$DIMLFAC
 40
1.0
  9
$DIMTOFL
 70
     1
  9
$DIMTVP
 40
0.0
  9
$DIMTIX
 70
     0
  9
$DIMSOXD
 70
     0
  9
$DIMSAH
 70
     0
  9
$DIMBLK1
  1

  9
$DIMBLK2
  1

  9
$DIMSTYLE
  2
STANDARD
  9
$DIMCLRD
 70
     0
  9
$DIMCLRE
 70
     0
  9
$DIMCLRT
 70
     0
  9
$DIMTFAC
 40
1.0
  9
$DIMGAP
 40
0.625
  9
$LUNITS
 70
     2
  9
$LUPREC
 70
     4
  9
$SKETCHINC
 40
1.0
  9
$FILLETRAD
 40
3.0
  9
$AUNITS
 70
     0
  9
$AUPREC
 70
     0
  9
$MENU
  1
.
  9
$ELEVATION
 40
0.0
  9
$PELEVATION
 40
0.0
  9
$THICKNESS
 40
0.0
  9
$LIMCHECK
 70
     0
  9
$BLIPMODE
 70
     0
  9
$CHAMFERA
 40
0.0
  9
$CHAMFERB
 40
0.0
  9
$SKPOLY
 70
     0
  9
$TDCREATE
 40
2455559.2317578131
  9
$TDUPDATE
 40
2457377.724045868
  9
$TDINDWG
 40
2.9208993981
  9
$TDUSRTIMER
 40
2.9208954167000001
  9
$USRTIMER
 70
     1
  9
$ANGBASE
 50
0.0
  9
$ANGDIR
 70
     0
  9
$PDMODE
 70
     0
  9
$PDSIZE
 40
0.0
  9
$PLINEWID
 40
0.0
  9
$COORDS
 70
     2
  9
$SPLFRAME
 70
     0
  9
$SPLINETYPE
 70
     6
  9
$SPLINESEGS
 70
     8
  9
$ATTDIA
 70
     1
  9
$ATTREQ
 70
     1
  9
$HANDLING
 70
     1
  9
$HANDSEED
  5
2D7
  9
$SURFTAB1
 70
     6
  9
$SURFTAB2
 70
     6
  9
$SURFTYPE
 70
     6
  9
$SURFU
 70
     6
  9
$SURFV
 70
     6
  9
$UCSNAME
  2

  9
$UCSORG
 10
0.0
 20
0.0
 30
0.0
  9
$UCSXDIR
 10
1.0
 20
0.0
 30
0.0
  9
$UCSYDIR
 10
0.0
 20
1.0
 30
0.0
  9
$PUCSNAME
  2

  9
$PUCSORG
 10
0.0
 20
0.0
 30
0.0
  9
$PUCSXDIR
 10
1.0
 20
0.0
 30
0.0
  9
$PUCSYDIR
 10
0.0
 20
1.0
 30
0.0
  9
$USERI1
 70
     0
  9
$USERI2
 70
     0
  9
$USERI3
 70
     0
  9
$USERI4
 70
     0
  9
$USERI5
 70
     0
  9
$USERR1
 40
0.0
  9
$USERR2
 40
0.0
  9
$USERR3
 40
0.0
  9
$USERR4
 40
0.0
  9
$USERR5
 40
0.0
  9
$WORLDVIEW
 70
     1
  9
$SHADEDGE
 70
     3
  9
$SHADEDIF
 70
    70
  9
$TILEMODE
 70
     1
  9
$MAXACTVP
 70
    64
  9
$PLIMCHECK
 70
     0
  9
$PEXTMIN
 10
25.699999999999989
 20
19.5
 30
0.0
  9
$PEXTMAX
 10
231.30000000000001
 20
175.5
 30
0.0
  9
$PLIMMIN
 10
-20.0
 20
-7.5
  9
$PLIMMAX
 10
277.0
 20
202.5
  9
$UNITMODE
 70
     0
  9
$VISRETAIN
 70
     1
  9
$PLINEGEN
 70
     0
  9
$PSLTSCALE
 70
     1
  0
ENDSEC
  0
SECTION
  2
TABLES
  0
TABLE
  2
VPORT
 70
     1
  0
VPORT
  2
*ACTIVE
 70
     0
 10
0.0
 20
0.0
 11
1.0
 21
1.0
 12
16458.127776663969
 22
5824.9361560382022
 13
0.0
 23
0.0
 14
10.0
 24
10.0
 15
10.0
 25
10.0
 16
-38962.971254248441
 26
-38962.97125424847
 36
38962.97125424847
 17
30714.317967474461
 27
7339.7553224022467
 37
0.0
 40
45085.451174768772
 41
1.56986301369863
 42
50.0
 43
0.0
 44
0.0
 50
0.0
 51
0.0000000000000313
 71
     0
 72
  1000
 73
     1
 74
     3
 75
     0
 76
     0
 77
     0
 78
     0
  0
ENDTAB
  0
TABLE
  2
LTYPE
 70
     4
  0
LTYPE
  2
CONTINUOUS
 70
     0
  3
Solid line
 72
    65
 73
     0
 40
0.0
  0
ENDTAB
  0
TABLE
  2
LAYER
 70
    10
  0
LAYER
  2
0
 70
     0
 62
     7
  6
CONTINUOUS
  0
ENDTAB
  0
TABLE
  2
STYLE
 70
     4
  0
STYLE
  2
STANDARD
 70
     0
 40
0.0
 41
1.0
 50
0.0
 71
     0
 42
2.5
  3
txt
  4

  0
STYLE
  2
INSCRIPTIONS
 70
     0
 40
0.0
 41
0.9
 50
0.0
 71
     0
 42
2.5
  3
txt
  4

  0
ENDTAB
  0
TABLE
  2
VIEW
 70
     1
  0
ENDTAB
  0
TABLE
  2
UCS
 70
     0
  0
ENDTAB
  0
TABLE
  2
APPID
 70
     7
  0
APPID
  2
ACAD
 70
     0
  0
APPID
  2
ACAD_PSEXT
 70
     0
  0
APPID
  2
ACAECLAYERSTANDARD
 70
     0
  0
APPID
  2
ACAD_NAV_VCDISPLAY
 70
     0
  0
APPID
  2
REVIT
 70
     0
  0
APPID
  2
ACAD_EXEMPT_FROM_CAD_STANDARDS
 70
     0
  0
APPID
  2
ACAD_MLEADERVER
 70
     0
  0
ENDTAB
  0
TABLE
  2
DIMSTYLE
 70
     1
  0
DIMSTYLE
  2
STANDARD
 70
     0
  3

  4

  5

  6

  7

 40
1.0
 41
0.18
 42
0.0625
 43
0.38
 44
0.18
 45
0.0
 46
0.0
 47
0.0
 48
0.0
140
0.18
141
0.09
142
0.0
143
25.399999999999999
144
1.0
145
0.0
146
1.0
147
0.09
 71
     0
 72
     0
 73
     1
 74
     1
 75
     0
 76
     0
 77
     0
 78
     0
170
     0
171
     2
172
     0
173
     0
174
     0
175
     0
176
     0
177
     0
178
     0
  0
ENDTAB
  0
ENDSEC
  0
SECTION
  2
BLOCKS
  0
BLOCK
  8
0
  2
$MODEL_SPACE
 70
     0
 10
0.0
 20
0.0
 30
0.0
  3
$MODEL_SPACE
  1

  0
ENDBLK
  5
D
  8
0
  0
BLOCK
 67
     1
  8
0
  2
$PAPER_SPACE
 70
     0
 10
0.0
 20
0.0
 30
0.0
  3
$PAPER_SPACE
  1

  0
ENDBLK
  5
1BD
 67
     1
  8
0
  0
BLOCK
  8
0
  2
*U2
 70
     1
 10
0.0
 20
0.0
 30
0.0
  3
*U2
  1

  0
TEXT
  5
253
  8
0
  6
CONTINUOUS
 10
37.699001542958243
 20
-62.504214985501839
 30
0.0
 40
14.9688
  1
50
 50
272.49999999999949
 41
0.8
  7
INSCRIPTIONS
  0
ENDBLK
  5
255
  8
0
  0
BLOCK
  8
0
  2
*U3
 70
     1
 10
0.0
 20
0.0
 30
0.0
  3
*U3
  1

  0
TEXT
  5
275
  8
0
  6
CONTINUOUS
 10
-15.61654707468278
 20
-33.503524653645762
 30
0.0
 40
14.9688
  1
50
 41
0.8
  7
INSCRIPTIONS
  0
ENDBLK
  5
277
  8
0
  0
BLOCK
  8
0
  2
*U4
 70
     1
 10
0.0
 20
0.0
 30
0.0
  3
*U4
  1

  0
TEXT
  5
279
  8
0
  6
CONTINUOUS
 10
2.939374983664492
 20
-25.622135877631081
 30
0.0
 40
6.5
  1
87.5°
 41
0.7
  7
INSCRIPTIONS
  0
ENDBLK
  5
27B
  8
0
  0
BLOCK
  8
0
  2
*U5
 70
     1
 10
0.0
 20
0.0
 30
0.0
  3
*U5
  1

  0
TEXT
  5
27D
  8
0
  6
CONTINUOUS
 10
2.9983511961509062
 20
-33.884980422253648
 30
0.0
 40
6.5
  1
PP-MD
 41
0.5
  7
INSCRIPTIONS
  0
ENDBLK
  5
27F
  8
0
  0
ENDSEC
  0
SECTION
  2
ENTITIES
  0
LINE
  5
4B
  8
0
 10
0.0
 20
0.0
 30
0.0
 11
-0.000000000001819
 21
-72.799999999999272
 31
0.0
  0
LINE
  5
4F
  8
0
 10
-0.000000000001819
 20
-72.799999999999272
 30
0.0
 11
-0.000000000001819
 21
-152.5
 31
0.0
  0
LINE
  5
50
  8
0
 10
25.199999999998909
 20
-44.800000000000182
 30
0.0
 11
25.199999999998909
 21
-46.475736572589987
 31
0.0
  0
LINE
  5
52
  8
0
 10
25.199999999998909
 20
-96.923751904821074
 30
0.0
 11
25.199999999998909
 21
-148.15137213509021
 31
0.0
  0
LINE
  5
53
  8
0
 10
-25.20000000000255
 20
-44.799999999999272
 30
0.0
 11
-25.20000000000255
 21
-148.1513721350893
 31
0.0
  0
LINE
  5
54
  8
0
 10
-27.20000000000255
 20
-37.799999999999272
 30
0.0
 11
27.199999999998909
 21
-37.800000000000182
 31
0.0
  0
LINE
  5
55
  8
0
 10
-25.20000000000255
 20
-44.799999999999272
 30
0.0
 11
-14.29765244273676
 21
-44.800000000000182
 31
0.0
  0
LINE
  5
56
  8
0
 10
14.297652442732209
 20
-44.800000000000182
 30
0.0
 11
25.199999999998909
 21
-44.800000000000182
 31
0.0
  0
LINE
  5
57
  8
0
 10
-27.20000000000255
 20
-37.799999999999272
 30
0.0
 11
-25.20000000000255
 21
-44.799999999999272
 31
0.0
  0
LINE
  5
58
  8
0
 10
27.199999999998909
 20
-37.800000000000182
 30
0.0
 11
25.199999999998909
 21
-44.800000000000182
 31
0.0
  0
ARC
  5
59
  8
0
 10
-0.000000000001819
 20
-36.37008771255023
 30
0.0
 40
18.93621704554436
 50
239.34608426254911
 51
300.65391573745092
  0
ARC
  5
5A
  8
0
 10
-0.000000000001819
 20
-36.37008771255023
 30
0.0
 40
20.93621704554343
 50
239.34608426254911
 51
300.65391573745092
  0
ARC
  5
5B
  8
0
 10
7.1563814674955211
 20
-48.444920764834023
 30
0.0
 40
4.8999999999999986
 50
300.65391573745092
 51
356.42366562502212
  0
ARC
  5
5C
  8
0
 10
7.1563814674955211
 20
-48.444920764834023
 30
0.0
 40
6.8999999999990704
 50
300.65391573745092
 51
356.42366562502212
  0
ARC
  5
5D
  8
0
 10
-7.156381467499159
 20
-48.444920764833107
 30
0.0
 40
4.8999999999999986
 50
183.57633437497779
 51
239.34608426254911
  0
ARC
  5
5E
  8
0
 10
-7.156381467499159
 20
-48.444920764833107
 30
0.0
 40
6.8999999999990704
 50
183.57633437497779
 51
239.34608426254911
  0
LINE
  5
5F
  8
0
 10
-12.046839102064951
 20
-48.750574366993533
 30
0.0
 11
-12.62489710443697
 21
-39.501646329050352
 31
0.0
  0
LINE
  5
60
  8
0
 10
-14.042944259030261
 20
-48.875330939304142
 30
0.0
 11
-14.62879954717209
 21
-39.501646329050352
 31
0.0
  0
LINE
  5
61
  8
0
 10
12.0468391020604
 20
-48.750574366994442
 30
0.0
 11
12.62489710443333
 21
-39.501646329051262
 31
0.0
  0
LINE
  5
62
  8
0
 10
14.042944259026619
 20
-48.875330939305059
 30
0.0
 11
14.628799547166629
 21
-39.501646329051262
 31
0.0
  0
LINE
  5
63
  8
0
 10
12.27147365623386
 20
-45.156421500220858
 30
0.0
 11
6.5488062594959038
 21
-45.156421500220858
 31
0.0
  0
LINE
  5
64
  8
0
 10
12.33397365623386
 20
-44.156421500220858
 30
0.0
 11
6.5488062594959038
 21
-44.156421500220858
 31
0.0
  0
LINE
  5
65
  8
0
 10
5.6056590063199101
 20
-45.824046322408321
 30
0.0
 11
2.31402377840277
 21
-55.164384984567732
 31
0.0
  0
LINE
  5
66
  8
0
 10
4.6625117531439173
 20
-45.491671144594868
 30
0.0
 11
1.2175382252662521
 21
-55.267122312348867
 31
0.0
  0
ARC
  5
67
  8
0
 10
6.5488062594959038
 20
-46.156421500220851
 30
0.0
 40
2.0
 50
90.0
 51
160.58699732404349
  0
ARC
  5
68
  8
0
 10
6.5488062594959038
 20
-46.156421500220851
 30
0.0
 40
0.9999999999998863
 50
90.0
 51
160.58699732404349
  0
LINE
  5
69
  8
0
 10
9.0311966979970748
 20
-46.4184465748367
 30
0.0
 11
7.6528246934267372
 21
-50.329712688388099
 31
0.0
  0
LINE
  5
6A
  8
0
 10
10.085885649312329
 20
-46.790130239874998
 30
0.0
 11
8.7075136447438126
 21
-50.70139635342548
 31
0.0
  0
LINE
  5
6B
  8
0
 10
9.0311966979970748
 20
-46.4184465748367
 30
0.0
 11
10.085885649312329
 21
-46.790130239874998
 31
0.0
  0
LINE
  5
6C
  8
0
 10
7.6528246934267372
 20
-50.329712688388099
 30
0.0
 11
8.7075136447438126
 21
-50.70139635342548
 31
0.0
  0
LINE
  5
6D
  8
0
 10
7.5308673782528777
 20
-50.6757785636064
 30
0.0
 11
8.5855563295681332
 21
-51.047462228643781
 31
0.0
  0
LINE
  5
6E
  8
0
 10
7.5308673782546967
 20
-50.6757785636064
 30
0.0
 11
7.7870210717701411
 21
-51.63115090964493
 31
0.0
  0
LINE
  5
6F
  8
0
 10
7.7870210717701411
 20
-51.63115090964493
 30
0.0
 11
8.5855563295681332
 21
-51.047462228643781
 31
0.0
  0
LINE
  5
70
  8
0
 10
-14.62879954717209
 20
-39.501646329051262
 30
0.0
 11
-12.62489710443697
 21
-39.501646329050352
 31
0.0
  0
LINE
  5
71
  8
0
 10
12.62489710443333
 20
-39.501646329051262
 30
0.0
 11
14.628799547166629
 21
-39.501646329051262
 31
0.0
  0
LINE
  5
72
  8
0
 10
71.731662309574858
 20
-69.668127987168646
 30
0.0
 11
-0.000000000001819
 21
-72.799999999999272
 31
0.0
  0
LINE
  5
73
  8
0
 10
28.07351054431274
 20
-96.798291724998307
 30
0.0
 11
25.199999999998909
 21
-96.923751904821074
 31
0.0
  0
LINE
  5
74
  8
0
 10
25.875093421100249
 20
-46.446261357273208
 30
0.0
 11
25.199999999998909
 21
-46.475736572589987
 31
0.0
  0
LINE
  5
75
  8
0
 10
25.875093421100249
 20
-46.446261357273208
 30
0.0
 11
28.07351054431183
 21
-96.798291724998307
 31
0.0
  0
LINE
  5
76
  8
0
 10
32.781192197442579
 20
-44.142829202552093
 30
0.0
 11
25.875093421100249
 21
-46.446261357273208
 31
0.0
  0
LINE
  5
77
  8
0
 10
35.154086870115862
 20
-98.491052456604848
 30
0.0
 11
28.07351054431183
 21
-96.798291724998307
 31
0.0
  0
INSERT
  5
78
  8
0
  6
CONTINUOUS
  2
*U2
 10
0.0
 20
0.0
 30
0.0
  0
POLYLINE
  5
7B
  8
0
 66
     1
 10
0.0
 20
0.0
 30
0.0
 70
     1
  0
VERTEX
  5
256
  8
0
 10
52.566825380135008
 20
-59.073485074078242
 30
0.0
  0
VERTEX
  5
257
  8
0
 10
52.254634417890877
 20
-51.923136468500161
 30
0.0
  0
VERTEX
  5
258
  8
0
 10
49.899803096311189
 20
-52.025950624391051
 30
0.0
  0
VERTEX
  5
259
  8
0
 10
50.211994058555319
 20
-59.176299229969118
 30
0.0
  0
SEQEND
  5
25A
  8
0
  0
POLYLINE
  5
7C
  8
0
 66
     1
 10
0.0
 20
0.0
 30
0.0
 70
     1
  0
VERTEX
  5
25B
  8
0
 10
36.00837349568156
 20
-60.402770039018833
 30
0.0
  0
VERTEX
  5
25C
  8
0
 10
35.82261324132287
 20
-56.148160724975241
 30
0.0
  0
VERTEX
  5
25D
  8
0
 10
36.962734605015612
 20
-56.098381951206647
 30
0.0
  0
VERTEX
  5
25E
  8
0
 10
37.148494859374303
 20
-60.352991265249322
 30
0.0
  0
SEQEND
  5
25F
  8
0
  0
LINE
  5
7D
  8
0
 10
43.134800067770811
 20
-59.741371163519943
 30
0.0
 11
42.885107283668731
 21
-54.022466177310889
 31
0.0
  0
POLYLINE
  5
7E
  8
0
 66
     1
 10
0.0
 20
0.0
 30
0.0
 70
     1
  0
VERTEX
  5
260
  8
0
 10
43.134800067770811
 20
-59.741371163519943
 30
0.0
  0
VERTEX
  5
261
  8
0
 10
42.866257843294079
 20
-53.590743014265172
 30
0.0
  0
VERTEX
  5
262
  8
0
 10
44.426242002479739
 20
-53.52263263495206
 30
0.0
  0
VERTEX
  5
263
  8
0
 10
44.694784226957381
 20
-59.673260784206832
 30
0.0
  0
SEQEND
  5
264
  8
0
  0
POLYLINE
  5
7F
  8
0
 66
     1
 10
0.0
 20
0.0
 30
0.0
 70
     1
  0
VERTEX
  5
265
  8
0
 10
53.563137342910522
 20
-81.892780682588636
 30
0.0
  0
VERTEX
  5
266
  8
0
 10
53.875328305154653
 20
-89.043129288166696
 30
0.0
  0
VERTEX
  5
267
  8
0
 10
51.520496983574048
 20
-89.145943444056684
 30
0.0
  0
VERTEX
  5
268
  8
0
 10
51.208306021329918
 20
-81.995594838478624
 30
0.0
  0
SEQEND
  5
269
  8
0
  0
POLYLINE
  5
80
  8
0
 66
     1
 10
0.0
 20
0.0
 30
0.0
 70
     1
  0
VERTEX
  5
26A
  8
0
 10
36.951840548567823
 20
-82.011718221002397
 30
0.0
  0
VERTEX
  5
26B
  8
0
 10
37.137600802926499
 20
-86.266327535045093
 30
0.0
  0
VERTEX
  5
26C
  8
0
 10
38.277722166619242
 20
-86.216548761276485
 30
0.0
  0
VERTEX
  5
26D
  8
0
 10
38.091961912260558
 20
-81.961939447232893
 30
0.0
  0
SEQEND
  5
26E
  8
0
  0
LINE
  5
81
  8
0
 10
44.108793626269282
 20
-82.049491273071908
 30
0.0
 11
44.35848641037137
 21
-87.768396259280053
 31
0.0
  0
POLYLINE
  5
82
  8
0
 66
     1
 10
0.0
 20
0.0
 30
0.0
 70
     1
  0
VERTEX
  5
26F
  8
0
 10
44.108793626269282
 20
-82.049491273071908
 30
0.0
  0
VERTEX
  5
270
  8
0
 10
44.377335850745112
 20
-88.20011942232577
 30
0.0
  0
VERTEX
  5
271
  8
0
 10
45.937320009931682
 20
-88.132009043013568
 30
0.0
  0
VERTEX
  5
272
  8
0
 10
45.668777785455859
 20
-81.981380893758796
 30
0.0
  0
SEQEND
  5
273
  8
0
  0
LINE
  5
83
  8
0
 10
-24.000197893514269
 20
-152.5
 30
0.0
 11
24.000197893510631
 21
-152.5
 31
0.0
  0
LINE
  5
84
  8
0
 10
-25.200000000001641
 20
-148.1513721350893
 30
0.0
 11
25.199999999998909
 21
-148.1513721350893
 31
0.0
  0
LINE
  5
85
  8
0
 10
-25.20000000000255
 20
-148.1513721350893
 30
0.0
 11
-24.000197893514269
 21
-152.5
 31
0.0
  0
LINE
  5
86
  8
0
 10
25.199999999998909
 20
-148.1513721350893
 30
0.0
 11
24.000197893510631
 21
-152.5
 31
0.0
  0
LINE
  5
87
  8
0
 10
-24.000197893514269
 20
-105.5
 30
0.0
 11
24.00019789351245
 21
-105.5
 31
0.0
  0
LINE
  5
8A
  8
0
 10
25.199999999998909
 20
-46.475736572589987
 30
0.0
 11
-0.000000000001819
 21
-72.799999999999272
 31
0.0
  0
LINE
  5
8B
  8
0
 10
-0.000000000001819
 20
-72.799999999999272
 30
0.0
 11
25.199999999998909
 21
-96.923751904821074
 31
0.0
  0
INSERT
  5
8C
  8
0
  6
CONTINUOUS
  2
*U3
 10
0.0
 20
0.0
 30
0.0
  0
INSERT
  5
8D
  8
0
  6
CONTINUOUS
  2
*U4
 10
0.0
 20
0.0
 30
0.0
  0
INSERT
  5
8E
  8
0
  6
CONTINUOUS
  2
*U5
 10
0.0
 20
0.0
 30
0.0
  0
POLYLINE
  5
8F
  8
0
 66
     1
 10
0.0
 20
0.0
 30
0.0
 70
     1
  0
VERTEX
  5
280
  8
0
 10
17.849234311852339
 20
-18.50020535336898
 30
0.0
  0
VERTEX
  5
281
  8
0
 10
25.00639494845927
 20
-18.50020535336898
 30
0.0
  0
VERTEX
  5
282
  8
0
 10
25.00639494845927
 20
-20.85728008781189
 30
0.0
  0
VERTEX
  5
283
  8
0
 10
17.849234311852339
 20
-20.85728008781189
 30
0.0
  0
SEQEND
  5
284
  8
0
  0
POLYLINE
  5
90
  8
0
 66
     1
 10
0.0
 20
0.0
 30
0.0
 70
     1
  0
VERTEX
  5
285
  8
0
 10
17.243484058571081
 20
-35.100879856486237
 30
0.0
  0
VERTEX
  5
286
  8
0
 10
21.502146675783479
 20
-35.100879856486237
 30
0.0
  0
VERTEX
  5
287
  8
0
 10
21.502146675783479
 20
-33.959672316086653
 30
0.0
  0
VERTEX
  5
288
  8
0
 10
17.243484058571081
 20
-33.959672316086653
 30
0.0
  0
SEQEND
  5
289
  8
0
  0
LINE
  5
91
  8
0
 10
17.593403067716281
 20
-27.95238624965441
 30
0.0
 11
23.317756369855491
 21
-27.95238624965441
 31
0.0
  0
POLYLINE
  5
92
  8
0
 66
     1
 10
0.0
 20
0.0
 30
0.0
 70
     1
  0
VERTEX
  5
28A
  8
0
 10
17.593403067716281
 20
-27.95238624965441
 30
0.0
  0
VERTEX
  5
28B
  8
0
 10
23.749890829153632
 20
-27.95238624965441
 30
0.0
  0
VERTEX
  5
28C
  8
0
 10
23.749890829153632
 20
-26.39091591670422
 30
0.0
  0
VERTEX
  5
28D
  8
0
 10
17.593403067716281
 20
-26.39091591670422
 30
0.0
  0
SEQEND
  5
28E
  8
0
  0
POLYLINE
  5
93
  8
0
 66
     1
 10
0.0
 20
0.0
 30
0.0
 70
     1
  0
VERTEX
  5
28F
  8
0
 10
-17.84923431185598
 20
-18.50020535336898
 30
0.0
  0
VERTEX
  5
290
  8
0
 10
-25.006394948462908
 20
-18.50020535336898
 30
0.0
  0
VERTEX
  5
291
  8
0
 10
-25.006394948462908
 20
-20.85728008781189
 30
0.0
  0
VERTEX
  5
292
  8
0
 10
-17.84923431185598
 20
-20.85728008781189
 30
0.0
  0
SEQEND
  5
293
  8
0
  0
POLYLINE
  5
94
  8
0
 66
     1
 10
0.0
 20
0.0
 30
0.0
 70
     1
  0
VERTEX
  5
294
  8
0
 10
-17.243484058574719
 20
-35.100879856486237
 30
0.0
  0
VERTEX
  5
295
  8
0
 10
-21.50214667578712
 20
-35.100879856486237
 30
0.0
  0
VERTEX
  5
296
  8
0
 10
-21.50214667578712
 20
-33.959672316086653
 30
0.0
  0
VERTEX
  5
297
  8
0
 10
-17.243484058574719
 20
-33.959672316086653
 30
0.0
  0
SEQEND
  5
298
  8
0
  0
LINE
  5
95
  8
0
 10
-17.593403067719919
 20
-27.95238624965441
 30
0.0
 11
-23.317756369859129
 21
-27.95238624965441
 31
0.0
  0
POLYLINE
  5
96
  8
0
 66
     1
 10
0.0
 20
0.0
 30
0.0
 70
     1
  0
VERTEX
  5
299
  8
0
 10
-17.593403067719919
 20
-27.95238624965441
 30
0.0
  0
VERTEX
  5
29A
  8
0
 10
-23.749890829157259
 20
-27.95238624965441
 30
0.0
  0
VERTEX
  5
29B
  8
0
 10
-23.749890829157259
 20
-26.39091591670422
 30
0.0
  0
VERTEX
  5
29C
  8
0
 10
-17.593403067719919
 20
-26.39091591670422
 30
0.0
  0
SEQEND
  5
29D
  8
0
  0
LINE
  5
97
  8
0
 10
-32.199999999999818
 20
-15.474089938300491
 30
0.0
 11
32.19999999999709
 21
-15.474089938300491
 31
0.0
  0
LINE
  5
98
  8
0
 10
-27.199999999999822
 20
0.0
 30
0.0
 11
-27.199999999999822
 21
-1.5
 31
0.0
  0
LINE
  5
99
  8
0
 10
-27.199999999997999
 20
-13.13425172568259
 30
0.0
 11
-27.199999999998909
 21
-13.4740899383014
 31
0.0
  0
LINE
  5
9A
  8
0
 10
27.199999999999822
 20
0.0
 30
0.0
 11
27.199999999999822
 21
-1.5
 31
0.0
  0
LINE
  5
9B
  8
0
 10
27.199999999998909
 20
-13.13425172568259
 30
0.0
 11
27.199999999998909
 21
-13.4740899383014
 31
0.0
  0
LINE
  5
9C
  8
0
 10
-32.199999999998909
 20
-13.474089938300491
 30
0.0
 11
32.199999999997999
 21
-13.4740899383014
 31
0.0
  0
LINE
  5
9D
  8
0
 10
-32.199999999999818
 20
-13.4740899383014
 30
0.0
 11
-32.200000000000728
 21
-15.4740899383014
 31
0.0
  0
LINE
  5
9E
  8
0
 10
32.199999999997999
 20
-13.4740899383014
 30
0.0
 11
32.19999999999709
 21
-15.474089938300491
 31
0.0
  0
LINE
  5
9F
  8
0
 10
-31.076028035110539
 20
-1.5
 30
0.0
 11
-0.0000000000009095
 21
-1.5
 31
0.0
  0
LINE
  5
A0
  8
0
 10
-0.0000000000009095
 20
-13.13425172568259
 30
0.0
 11
-32.799321298888572
 21
-13.13425172568259
 31
0.0
  0
LINE
  5
A1
  8
0
 10
-32.799321298888572
 20
-13.13425172568259
 30
0.0
 11
-31.076028035110539
 21
-1.5
 31
0.0
  0
LINE
  5
A2
  8
0
 10
31.07602803510963
 20
-1.5
 30
0.0
 11
-0.0000000000009095
 21
-1.5
 31
0.0
  0
LINE
  5
A3
  8
0
 10
-0.0000000000009095
 20
-13.13425172568259
 30
0.0
 11
32.799321298887662
 21
-13.13425172568259
 31
0.0
  0
LINE
  5
A4
  8
0
 10
32.799321298887662
 20
-13.13425172568259
 30
0.0
 11
31.07602803510963
 21
-1.5
 31
0.0
  0
LINE
  5
A5
  8
0
 10
-27.199999999997999
 20
0.0
 30
0.0
 11
-27.199999999999822
 21
-1.5
 31
0.0
  0
LINE
  5
A6
  8
0
 10
-27.199999999998909
 20
0.0
 30
0.0
 11
27.199999999998909
 21
0.0
 31
0.0
  0
ARC
  5
A7
  8
0
 10
29.225676550933709
 20
-17.499766489235299
 30
0.0
 40
2.025676550934576
 50
90.0
 51
180.0
  0
ARC
  5
A8
  8
0
 10
-29.225676550935528
 20
-17.499766489231661
 30
0.0
 40
2.025676550934576
 50
0.0
 51
90.0
  0
LINE
  5
A9
  8
0
 10
-0.999999999998181
 20
-1.5
 30
0.0
 11
-1.0
 21
-13.13425172568259
 31
0.0
  0
LINE
  5
AB
  8
0
 10
0.9999999999990905
 20
-1.5
 30
0.0
 11
0.9999999999990905
 21
-13.13425172568259
 31
0.0
  0
LINE
  5
AC
  8
0
 10
-11.56125567107483
 20
-1.5
 30
0.0
 11
-12.0
 21
-13.13425172568259
 31
0.0
  0
LINE
  5
AD
  8
0
 10
11.56125567107301
 20
-1.5
 30
0.0
 11
11.999999999998179
 21
-13.13425172568259
 31
0.0
  0
LINE
  5
AE
  8
0
 10
23.843775251720221
 20
-1.5
 30
0.0
 11
24.729460892332099
 21
-13.13425172568259
 31
0.0
  0
LINE
  5
AF
  8
0
 10
25.46871036671655
 20
-1.5
 30
0.0
 11
26.354396007327519
 21
-13.13425172568259
 31
0.0
  0
LINE
  5
B0
  8
0
 10
-23.843775251720221
 20
-1.5
 30
0.0
 11
-24.729460892333009
 21
-13.13425172568259
 31
0.0
  0
LINE
  5
B1
  8
0
 10
-25.46871036671746
 20
-1.5
 30
0.0
 11
-26.354396007329338
 21
-13.13425172568259
 31
0.0
  0
LINE
  5
B2
  8
0
 10
-27.200000000000731
 20
-17.499766489231661
 30
0.0
 11
-27.200000000000731
 21
-37.800000000001091
 31
0.0
  0
LINE
  5
B3
  8
0
 10
27.199999999998909
 20
-17.499766489235299
 30
0.0
 11
27.199999999998909
 21
-37.800000000000182
 31
0.0
  0
LINE
  5
B4
  8
0
 10
32.781192197442579
 20
-44.142829202552093
 30
0.0
 11
35.154086870115862
 21
-98.491052456604848
 31
0.0
  0
LINE
  5
B5
  8
0
 10
54.867756002955502
 20
-38.17374557538006
 30
0.0
 11
57.676844549279849
 21
-102.5124510452487
 31
0.0
  0
LINE
  5
B6
  8
0
 10
70.545214973238217
 20
-42.49401636014499
 30
0.0
 11
69.046642640865684
 21
-42.55944544119302
 31
0.0
  0
LINE
  5
B7
  8
0
 10
57.423464144886573
 20
-43.06692437392212
 30
0.0
 11
57.083949382944411
 21
-43.081747908559002
 31
0.0
  0
LINE
  5
B8
  8
0
 10
72.91810964591059
 20
-96.842239614197752
 30
0.0
 11
71.419537313537148
 21
-96.907668695245775
 31
0.0
  0
LINE
  5
B9
  8
0
 10
59.796358817558939
 20
-97.415147627972161
 30
0.0
 11
59.456844055615868
 21
-97.429971162609945
 31
0.0
  0
LINE
  5
BA
  8
0
 10
56.865852446118879
 20
-38.086506800649659
 30
0.0
 11
59.674940992443233
 21
-102.4252122705184
 31
0.0
  0
LINE
  5
BB
  8
0
 10
56.86585244611706
 20
-38.086506800648749
 30
0.0
 11
54.867756002953683
 21
-38.173745575379151
 31
0.0
  0
LINE
  5
BC
  8
0
 10
59.674940992443233
 20
-102.4252122705184
 30
0.0
 11
57.676844549279849
 21
-102.5124510452487
 31
0.0
  0
LINE
  5
BD
  8
0
 10
68.877572672563474
 20
-38.687106525913812
 30
0.0
 11
70.233089977201416
 21
-69.733557068218033
 31
0.0
  0
LINE
  5
BE
  8
0
 10
58.609911481222298
 20
-70.241036000945314
 30
0.0
 11
57.179225180167123
 21
-37.472932388200213
 31
0.0
  0
LINE
  5
BF
  8
0
 10
57.179225180167123
 20
-37.472932388200213
 30
0.0
 11
68.877572672563474
 21
-38.687106525913812
 31
0.0
  0
LINE
  5
C0
  8
0
 10
71.588607281839359
 20
-100.7800076105231
 30
0.0
 11
70.233089977201416
 21
-69.733557068218033
 31
0.0
  0
LINE
  5
C1
  8
0
 10
58.609911481222298
 20
-70.241036000945314
 30
0.0
 11
60.040597782277473
 21
-103.0091396136922
 31
0.0
  0
LINE
  5
C2
  8
0
 10
60.040597782277473
 20
-103.0091396136922
 30
0.0
 11
71.588607281839359
 21
-100.7800076105231
 31
0.0
  0
LINE
  5
C3
  8
0
 10
70.545214973238217
 20
-42.494016360146809
 30
0.0
 11
69.046642640865684
 21
-42.55944544119302
 31
0.0
  0
LINE
  5
C4
  8
0
 10
70.545214973238217
 20
-42.494016360145899
 30
0.0
 11
72.91810964591059
 21
-96.842239614196842
 31
0.0
  0
ARC
  5
C5
  8
0
 10
55.523357826894433
 20
-99.629317263204939
 30
0.0
 40
2.025676550934576
 50
2.500000000018515
 51
92.500000000018517
  0
ARC
  5
C6
  8
0
 10
52.973745613920983
 20
-41.233596897728603
 30
0.0
 40
2.025676550934576
 50
272.50000000001847
 51
2.500000000018515
  0
LINE
  5
C7
  8
0
 10
70.189470589835764
 20
-68.734508846639073
 30
0.0
 11
58.566292093857548
 21
-69.241987779364536
 31
0.0
  0
LINE
  5
C8
  8
0
 10
70.276709364567068
 20
-70.732605289800631
 30
0.0
 11
58.65353086858795
 21
-71.240084222527912
 31
0.0
  0
LINE
  5
C9
  8
0
 10
69.728795087656181
 20
-58.183305150778317
 30
0.0
 11
58.08647883283902
 21
-58.252457341964138
 31
0.0
  0
LINE
  5
CA
  8
0
 10
70.737384866747561
 20
-81.283808985657743
 30
0.0
 11
59.133344129606478
 21
-82.229614659927392
 31
0.0
  0
LINE
  5
CB
  8
0
 10
71.27314084615773
 20
-93.554638329247595
 30
0.0
 11
59.688595415220327
 21
-94.94695992610923
 31
0.0
  0
LINE
  5
CC
  8
0
 10
71.344019520382062
 20
-95.178026866070454
 30
0.0
 11
59.759474089445568
 21
-96.570348462931179
 31
0.0
  0
LINE
  5
CD
  8
0
 10
69.193039108246012
 20
-45.912475807190269
 30
0.0
 11
57.531227547225171
 21
-45.535112075783211
 31
0.0
  0
LINE
  5
CE
  8
0
 10
69.12216043402077
 20
-44.289087270366508
 30
0.0
 11
57.460348873000832
 21
-43.911723538960359
 31
0.0
  0
LINE
  5
CF
  8
0
 10
53.062104384072882
 20
-43.257345453440387
 30
0.0
 11
32.781192197442579
 21
-44.142829202552093
 31
0.0
  0
LINE
  5
D0
  8
0
 10
55.434999056742519
 20
-97.605568707493148
 30
0.0
 11
35.154086870115862
 21
-98.491052456604848
 31
0.0
  0
VIEWPORT
  5
1C1
 67
     1
  8
0
  6
CONTINUOUS
 10
128.5
 20
97.5
 30
0.0
 40
348.79216438356173
 41
222.18000000000001
 68
     1
 69
     1
1001
ACAD
1000
MVIEW
1002
{
1070
    16
1010
0.0
1020
0.0
1030
0.0
1010
0.0
1020
0.0
1030
1.0
1040
0.0
1040
222.18000000000001
1040
128.5
1040
97.5
1040
50.0
1040
0.0
1040
0.0
1070
     0
1070
  1000
1070
     1
1070
     1
1070
     0
1070
     0
1070
     0
1070
     0
1040
0.0
1040
0.0
1040
0.0
1040
10.0
1040
10.0
1040
10.0
1040
10.0
1070
     0
1002
{
1002
}
1002
}
  0
VIEWPORT
  5
1C5
 67
     1
  8
0
  6
CONTINUOUS
 10
128.5
 20
97.5
 30
0.0
 40
205.59999999999999
 41
156.0
 68
     2
 69
     2
1001
ACAD
1000
MVIEW
1002
{
1070
    16
1010
30714.317967474461
1020
7339.7553224022467
1030
0.0
1010
-38962.971254248441
1020
-38962.97125424847
1030
38962.97125424847
1040
0.0000000000000005
1040
139.77045701667109
1040
-16460.210727888269
1040
-15558.45008454752
1040
50.0
1040
0.0
1040
0.0
1070
     0
1070
  1000
1070
     1
1070
     3
1070
     0
1070
     0
1070
     0
1070
     0
1040
0.0
1040
0.0
1040
0.0
1040
10.0
1040
10.0
1040
10.0
1040
10.0
1070
     0
1002
{
1002
}
1002
}
  0
ENDSEC
  0
EOF
