  0
SECTION
  2
HEADER
  9
$ACADVER
  1
AC1009
  9
$INSBASE
 10
0.0
 20
0.0
 30
0.0
  9
$EXTMIN
 10
-45.599321298888754
 20
-214.0
 30
0.0
  9
$EXTMAX
 10
128.3936407245464
 20
0.0
 30
0.0
  9
$LIMMIN
 10
0.0
 20
0.0
  9
$LIMMAX
 10
420.0
 20
297.0
  9
$ORTHOMODE
 70
     0
  9
$REGENMODE
 70
     1
  9
$FILLMODE
 70
     1
  9
$QTEXTMODE
 70
     0
  9
$MIRRTEXT
 70
     0
  9
$DRAGMODE
 70
     2
  9
$LTSCALE
 40
1.0
  9
$OSMODE
 70
   127
  9
$ATTMODE
 70
     1
  9
$TEXTSIZE
 40
2.5
  9
$TRACEWID
 40
1.0
  9
$TEXTSTYLE
  7
STANDARD
  9
$CLAYER
  8
0
  9
$CELTYPE
  6
CONTINUOUS
  9
$CECOLOR
 62
   256
  9
$DIMSCALE
 40
1.0
  9
$DIMASZ
 40
2.5
  9
$DIMEXO
 40
0.625
  9
$DIMDLI
 40
3.75
  9
$DIMRND
 40
0.0
  9
$DIMDLE
 40
0.0
  9
$DIMEXE
 40
1.25
  9
$DIMTP
 40
0.0
  9
$DIMTM
 40
0.0
  9
$DIMTXT
 40
2.5
  9
$DIMCEN
 40
2.5
  9
$DIMTSZ
 40
0.0
  9
$DIMTOL
 70
     0
  9
$DIMLIM
 70
     0
  9
$DIMTIH
 70
     0
  9
$DIMTOH
 70
     0
  9
$DIMSE1
 70
     0
  9
$DIMSE2
 70
     0
  9
$DIMTAD
 70
     1
  9
$DIMZIN
 70
     8
  9
$DIMBLK
  1

  9
$DIMASO
 70
     1
  9
$DIMSHO
 70
     1
  9
$DIMPOST
  1

  9
$DIMAPOST
  1

  9
$DIMALT
 70
     0
  9
$DIMALTD
 70
     3
  9
$DIMALTF
 40
0.03937007874016
  9
$DIMLFAC
 40
1.0
  9
$DIMTOFL
 70
     1
  9
$DIMTVP
 40
0.0
  9
$DIMTIX
 70
     0
  9
$DIMSOXD
 70
     0
  9
$DIMSAH
 70
     0
  9
$DIMBLK1
  1

  9
$DIMBLK2
  1

  9
$DIMSTYLE
  2
STANDARD
  9
$DIMCLRD
 70
     0
  9
$DIMCLRE
 70
     0
  9
$DIMCLRT
 70
     0
  9
$DIMTFAC
 40
1.0
  9
$DIMGAP
 40
0.625
  9
$LUNITS
 70
     2
  9
$LUPREC
 70
     4
  9
$SKETCHINC
 40
1.0
  9
$FILLETRAD
 40
3.0
  9
$AUNITS
 70
     0
  9
$AUPREC
 70
     0
  9
$MENU
  1
.
  9
$ELEVATION
 40
0.0
  9
$PELEVATION
 40
0.0
  9
$THICKNESS
 40
0.0
  9
$LIMCHECK
 70
     0
  9
$BLIPMODE
 70
     0
  9
$CHAMFERA
 40
0.0
  9
$CHAMFERB
 40
0.0
  9
$SKPOLY
 70
     0
  9
$TDCREATE
 40
2455559.2317578131
  9
$TDUPDATE
 40
2457377.723071551
  9
$TDINDWG
 40
2.9209456366
  9
$TDUSRTIMER
 40
2.9209416551
  9
$USRTIMER
 70
     1
  9
$ANGBASE
 50
0.0
  9
$ANGDIR
 70
     0
  9
$PDMODE
 70
     0
  9
$PDSIZE
 40
0.0
  9
$PLINEWID
 40
0.0
  9
$COORDS
 70
     2
  9
$SPLFRAME
 70
     0
  9
$SPLINETYPE
 70
     6
  9
$SPLINESEGS
 70
     8
  9
$ATTDIA
 70
     1
  9
$ATTREQ
 70
     1
  9
$HANDLING
 70
     1
  9
$HANDSEED
  5
2D5
  9
$SURFTAB1
 70
     6
  9
$SURFTAB2
 70
     6
  9
$SURFTYPE
 70
     6
  9
$SURFU
 70
     6
  9
$SURFV
 70
     6
  9
$UCSNAME
  2

  9
$UCSORG
 10
0.0
 20
0.0
 30
0.0
  9
$UCSXDIR
 10
1.0
 20
0.0
 30
0.0
  9
$UCSYDIR
 10
0.0
 20
1.0
 30
0.0
  9
$PUCSNAME
  2

  9
$PUCSORG
 10
0.0
 20
0.0
 30
0.0
  9
$PUCSXDIR
 10
1.0
 20
0.0
 30
0.0
  9
$PUCSYDIR
 10
0.0
 20
1.0
 30
0.0
  9
$USERI1
 70
     0
  9
$USERI2
 70
     0
  9
$USERI3
 70
     0
  9
$USERI4
 70
     0
  9
$USERI5
 70
     0
  9
$USERR1
 40
0.0
  9
$USERR2
 40
0.0
  9
$USERR3
 40
0.0
  9
$USERR4
 40
0.0
  9
$USERR5
 40
0.0
  9
$WORLDVIEW
 70
     1
  9
$SHADEDGE
 70
     3
  9
$SHADEDIF
 70
    70
  9
$TILEMODE
 70
     1
  9
$MAXACTVP
 70
    64
  9
$PLIMCHECK
 70
     0
  9
$PEXTMIN
 10
25.699999999999989
 20
19.5
 30
0.0
  9
$PEXTMAX
 10
231.30000000000001
 20
175.5
 30
0.0
  9
$PLIMMIN
 10
-20.0
 20
-7.5
  9
$PLIMMAX
 10
277.0
 20
202.5
  9
$UNITMODE
 70
     0
  9
$VISRETAIN
 70
     1
  9
$PLINEGEN
 70
     0
  9
$PSLTSCALE
 70
     1
  0
ENDSEC
  0
SECTION
  2
TABLES
  0
TABLE
  2
VPORT
 70
     1
  0
VPORT
  2
*ACTIVE
 70
     0
 10
0.0
 20
0.0
 11
1.0
 21
1.0
 12
16458.127776663969
 22
5824.9361560382022
 13
0.0
 23
0.0
 14
10.0
 24
10.0
 15
10.0
 25
10.0
 16
-38962.971254248441
 26
-38962.97125424847
 36
38962.97125424847
 17
30714.317967474461
 27
7339.7553224022467
 37
0.0
 40
45085.451174768772
 41
1.56986301369863
 42
50.0
 43
0.0
 44
0.0
 50
0.0
 51
0.0000000000000313
 71
     0
 72
  1000
 73
     1
 74
     3
 75
     0
 76
     0
 77
     0
 78
     0
  0
ENDTAB
  0
TABLE
  2
LTYPE
 70
     4
  0
LTYPE
  2
CONTINUOUS
 70
     0
  3
Solid line
 72
    65
 73
     0
 40
0.0
  0
ENDTAB
  0
TABLE
  2
LAYER
 70
    10
  0
LAYER
  2
0
 70
     0
 62
     7
  6
CONTINUOUS
  0
ENDTAB
  0
TABLE
  2
STYLE
 70
     4
  0
STYLE
  2
STANDARD
 70
     0
 40
0.0
 41
1.0
 50
0.0
 71
     0
 42
2.5
  3
txt
  4

  0
STYLE
  2
INSCRIPTIONS
 70
     0
 40
0.0
 41
0.9
 50
0.0
 71
     0
 42
2.5
  3
txt
  4

  0
ENDTAB
  0
TABLE
  2
VIEW
 70
     1
  0
ENDTAB
  0
TABLE
  2
UCS
 70
     0
  0
ENDTAB
  0
TABLE
  2
APPID
 70
     7
  0
APPID
  2
ACAD
 70
     0
  0
APPID
  2
ACAD_PSEXT
 70
     0
  0
APPID
  2
ACAECLAYERSTANDARD
 70
     0
  0
APPID
  2
ACAD_NAV_VCDISPLAY
 70
     0
  0
APPID
  2
REVIT
 70
     0
  0
APPID
  2
ACAD_EXEMPT_FROM_CAD_STANDARDS
 70
     0
  0
APPID
  2
ACAD_MLEADERVER
 70
     0
  0
ENDTAB
  0
TABLE
  2
DIMSTYLE
 70
     1
  0
DIMSTYLE
  2
STANDARD
 70
     0
  3

  4

  5

  6

  7

 40
1.0
 41
0.18
 42
0.0625
 43
0.38
 44
0.18
 45
0.0
 46
0.0
 47
0.0
 48
0.0
140
0.18
141
0.09
142
0.0
143
25.399999999999999
144
1.0
145
0.0
146
1.0
147
0.09
 71
     0
 72
     0
 73
     1
 74
     1
 75
     0
 76
     0
 77
     0
 78
     0
170
     0
171
     2
172
     0
173
     0
174
     0
175
     0
176
     0
177
     0
178
     0
  0
ENDTAB
  0
ENDSEC
  0
SECTION
  2
BLOCKS
  0
BLOCK
  8
0
  2
$MODEL_SPACE
 70
     0
 10
0.0
 20
0.0
 30
0.0
  3
$MODEL_SPACE
  1

  0
ENDBLK
  5
D
  8
0
  0
BLOCK
 67
     1
  8
0
  2
$PAPER_SPACE
 70
     0
 10
0.0
 20
0.0
 30
0.0
  3
$PAPER_SPACE
  1

  0
ENDBLK
  5
1BB
 67
     1
  8
0
  0
BLOCK
  8
0
  2
*U2
 70
     1
 10
0.0
 20
0.0
 30
0.0
  3
*U2
  1

  0
TEXT
  5
26F
  8
0
  6
CONTINUOUS
 10
62.968252707056052
 20
-60.008873677616769
 30
0.0
 40
18.710999999999999
  1
75
 50
315.0
 41
0.9
  7
INSCRIPTIONS
  0
ENDBLK
  5
271
  8
0
  0
BLOCK
  8
0
  2
*U3
 70
     1
 10
0.0
 20
0.0
 30
0.0
  3
*U3
  1

  0
TEXT
  5
291
  8
0
  6
CONTINUOUS
 10
-21.852895868647469
 20
-38.599963190122011
 30
0.0
 40
18.710999999999999
  1
75
 41
0.8
  7
INSCRIPTIONS
  0
ENDBLK
  5
293
  8
0
  0
BLOCK
  8
0
  2
*U4
 70
     1
 10
0.0
 20
0.0
 30
0.0
  3
*U4
  1

  0
TEXT
  5
295
  8
0
  6
CONTINUOUS
 10
5.7671520472995317
 20
-28.461570822115029
 30
0.0
 40
8.0999999999999996
  1
45°
 41
0.7
  7
INSCRIPTIONS
  0
ENDBLK
  5
297
  8
0
  0
BLOCK
  8
0
  2
*U5
 70
     1
 10
0.0
 20
0.0
 30
0.0
  3
*U5
  1

  0
TEXT
  5
299
  8
0
  6
CONTINUOUS
 10
1.5476377216864421
 20
-39.439648727756868
 30
0.0
 40
8.0999999999999996
  1
PP-MD
 41
0.6
  7
INSCRIPTIONS
  0
ENDBLK
  5
29B
  8
0
  0
ENDSEC
  0
SECTION
  2
ENTITIES
  0
LINE
  5
4B
  8
0
 10
0.0
 20
0.0
 30
0.0
 11
0.0
 21
-139.2000000000007
 31
0.0
  0
LINE
  5
4F
  8
0
 10
0.0
 20
-139.2000000000007
 30
0.0
 11
0.0
 21
-214.0
 31
0.0
  0
LINE
  5
50
  8
0
 10
-37.700000000000728
 20
-52.699999999999811
 30
0.0
 11
-37.700000000000728
 21
-209.4115362250522
 31
0.0
  0
LINE
  5
52
  8
0
 10
37.699999999998909
 20
-154.81585130146499
 30
0.0
 11
37.699999999999818
 21
-209.4115362250532
 31
0.0
  0
LINE
  5
53
  8
0
 10
39.97160876900216
 20
-42.699999999999811
 30
0.0
 11
-40.000000000001819
 21
-42.699999999999811
 31
0.0
  0
LINE
  5
54
  8
0
 10
-37.700000000000728
 20
-52.699999999999811
 30
0.0
 11
-19.378902442735122
 21
-52.699999999999811
 31
0.0
  0
LINE
  5
55
  8
0
 10
19.378902442736941
 20
-52.699999999999811
 30
0.0
 11
35.829473145272459
 21
-52.699999999999811
 31
0.0
  0
ARC
  5
56
  8
0
 10
0.0
 20
-37.657268160786771
 30
0.0
 40
27.051738636491951
 50
239.34608426254911
 51
300.65391573745092
  0
ARC
  5
57
  8
0
 10
0.0
 20
-37.657268160786771
 30
0.0
 40
29.05173863649194
 50
239.34608426254911
 51
300.65391573745092
  0
ARC
  5
58
  8
0
 10
10.22340209642425
 20
-54.90702966404843
 30
0.0
 40
7.0
 50
300.65391573745092
 51
356.42366562502212
  0
ARC
  5
59
  8
0
 10
10.22340209642425
 20
-54.90702966404843
 30
0.0
 40
9.0
 50
300.65391573745092
 51
356.42366562502212
  0
ARC
  5
5A
  8
0
 10
-10.22340209642425
 20
-54.907029664047514
 30
0.0
 40
7.0
 50
183.57633437497779
 51
239.34608426254911
  0
ARC
  5
5B
  8
0
 10
-10.22340209642425
 20
-54.907029664047514
 30
0.0
 40
9.0
 50
183.57633437497779
 51
239.34608426254911
  0
LINE
  5
5C
  8
0
 10
-17.20977014580421
 20
-55.343677667133299
 30
0.0
 11
-17.93612395185119
 21
-43.722016770414477
 31
0.0
  0
LINE
  5
5D
  8
0
 10
-19.205875302770441
 20
-55.468434239443923
 30
0.0
 11
-19.940026394584489
 21
-43.722016770414477
 31
0.0
  0
LINE
  5
5E
  8
0
 10
17.20977014580421
 20
-55.343677667135118
 30
0.0
 11
17.93612395184936
 21
-43.722016770413568
 31
0.0
  0
LINE
  5
5F
  8
0
 10
19.205875302770441
 20
-55.468434239444832
 30
0.0
 11
19.940026394586312
 21
-43.722016770413568
 31
0.0
  0
LINE
  5
60
  8
0
 10
-19.940026394584489
 20
-43.722016770414477
 30
0.0
 11
-17.93612395185119
 21
-43.722016770414477
 31
0.0
  0
LINE
  5
61
  8
0
 10
17.93612395184936
 20
-43.722016770414477
 30
0.0
 11
19.940026394586312
 21
-43.722016770414477
 31
0.0
  0
LINE
  5
62
  8
0
 10
17.350585836786191
 20
-53.090626611416162
 30
0.0
 11
9.0584549632003473
 21
-53.090626611416162
 31
0.0
  0
LINE
  5
63
  8
0
 10
17.350585836786191
 20
-52.090626611416148
 30
0.0
 11
9.0584549632003473
 21
-52.090626611416148
 31
0.0
  0
LINE
  5
64
  8
0
 10
8.1153077100243536
 20
-53.758251433603618
 30
0.0
 11
4.3820533808120672
 21
-64.35172772498845
 31
0.0
  0
LINE
  5
65
  8
0
 10
7.172160456848359
 20
-53.425876255790172
 30
0.0
 11
3.2655811223121409
 21
-64.511179294747294
 31
0.0
  0
ARC
  5
66
  8
0
 10
9.0584549632003473
 20
-54.090626611416148
 30
0.0
 40
2.0
 50
90.0
 51
160.5869973240558
  0
ARC
  5
67
  8
0
 10
9.0584549632003473
 20
-54.090626611416148
 30
0.0
 40
0.9999999999998863
 50
90.0
 51
160.5869973240558
  0
LINE
  5
68
  8
0
 10
12.16933060895462
 20
-54.98113689328602
 30
0.0
 11
10.790958604384279
 21
-58.892403006836503
 31
0.0
  0
LINE
  5
69
  8
0
 10
13.22401956026988
 20
-55.352820558323401
 30
0.0
 11
11.84564755570136
 21
-59.264086671873883
 31
0.0
  0
LINE
  5
6A
  8
0
 10
12.16933060895462
 20
-54.98113689328602
 30
0.0
 11
13.22401956026988
 21
-55.352820558323401
 31
0.0
  0
LINE
  5
6B
  8
0
 10
10.790958604384279
 20
-58.892403006836503
 30
0.0
 11
11.84564755570136
 21
-59.264086671873883
 31
0.0
  0
LINE
  5
6C
  8
0
 10
10.66900128921043
 20
-59.238468882054804
 30
0.0
 11
11.723690240525681
 21
-59.610152547093087
 31
0.0
  0
LINE
  5
6D
  8
0
 10
10.66900128921224
 20
-59.238468882054804
 30
0.0
 11
10.92515498272769
 21
-60.193841228093333
 31
0.0
  0
LINE
  5
6E
  8
0
 10
10.92515498272769
 20
-60.193841228093333
 30
0.0
 11
11.723690240525681
 21
-59.610152547093087
 31
0.0
  0
LINE
  5
6F
  8
0
 10
-37.700000000000728
 20
-52.699999999999811
 30
0.0
 11
-40.000000000001819
 21
-42.699999999999811
 31
0.0
  0
POLYLINE
  5
70
  8
0
 66
     1
 10
0.0
 20
0.0
 30
0.0
 70
     1
  0
VERTEX
  5
250
  8
0
 10
-22.98393167454924
 20
-21.525371376104879
 30
0.0
  0
VERTEX
  5
251
  8
0
 10
-30.141092311156171
 20
-21.525371376104879
 30
0.0
  0
VERTEX
  5
252
  8
0
 10
-30.141092311156171
 20
-23.882446110547789
 30
0.0
  0
VERTEX
  5
253
  8
0
 10
-22.98393167454924
 20
-23.882446110547789
 30
0.0
  0
SEQEND
  5
254
  8
0
  0
POLYLINE
  5
72
  8
0
 66
     1
 10
0.0
 20
0.0
 30
0.0
 70
     1
  0
VERTEX
  5
255
  8
0
 10
-22.378181421267978
 20
-38.126045879221238
 30
0.0
  0
VERTEX
  5
256
  8
0
 10
-26.63684403847947
 20
-38.126045879221238
 30
0.0
  0
VERTEX
  5
257
  8
0
 10
-26.63684403847947
 20
-36.984838338821653
 30
0.0
  0
VERTEX
  5
258
  8
0
 10
-22.378181421267069
 20
-36.984838338821653
 30
0.0
  0
SEQEND
  5
259
  8
0
  0
LINE
  5
73
  8
0
 10
-22.728100430413178
 20
-30.977552272389399
 30
0.0
 11
-28.452453732552382
 21
-30.977552272389399
 31
0.0
  0
POLYLINE
  5
74
  8
0
 66
     1
 10
0.0
 20
0.0
 30
0.0
 70
     1
  0
VERTEX
  5
25A
  8
0
 10
-22.728100430413178
 20
-30.977552272389399
 30
0.0
  0
VERTEX
  5
25B
  8
0
 10
-28.884588191849609
 20
-30.977552272389399
 30
0.0
  0
VERTEX
  5
25C
  8
0
 10
-28.884588191850529
 20
-29.416081939439209
 30
0.0
  0
VERTEX
  5
25D
  8
0
 10
-22.728100430413178
 20
-29.416081939439209
 30
0.0
  0
SEQEND
  5
25E
  8
0
  0
LINE
  5
75
  8
0
 10
36.225420862979263
 20
-214.0
 30
0.0
 11
-36.225420862980172
 21
-214.0
 31
0.0
  0
LINE
  5
76
  8
0
 10
37.699999999999818
 20
-209.4115362250522
 30
0.0
 11
-37.700000000000728
 21
-209.4115362250522
 31
0.0
  0
LINE
  5
77
  8
0
 10
-37.700000000000728
 20
-209.4115362250522
 30
0.0
 11
-36.225420862980172
 21
-214.0
 31
0.0
  0
LINE
  5
78
  8
0
 10
37.700000000000728
 20
-209.4115362250522
 30
0.0
 11
36.225420862979263
 21
-214.0
 31
0.0
  0
POLYLINE
  5
79
  8
0
 66
     1
 10
0.0
 20
0.0
 30
0.0
 70
     1
  0
VERTEX
  5
25F
  8
0
 10
22.983931674545602
 20
-21.52537137610307
 30
0.0
  0
VERTEX
  5
260
  8
0
 10
30.14109231115253
 20
-21.52537137610307
 30
0.0
  0
VERTEX
  5
261
  8
0
 10
30.14109231115253
 20
-23.88244611054597
 30
0.0
  0
VERTEX
  5
262
  8
0
 10
22.983931674545602
 20
-23.88244611054597
 30
0.0
  0
SEQEND
  5
263
  8
0
  0
POLYLINE
  5
7A
  8
0
 66
     1
 10
0.0
 20
0.0
 30
0.0
 70
     1
  0
VERTEX
  5
264
  8
0
 10
22.37818142126525
 20
-38.126045879220328
 30
0.0
  0
VERTEX
  5
265
  8
0
 10
26.636844038477651
 20
-38.126045879219419
 30
0.0
  0
VERTEX
  5
266
  8
0
 10
26.636844038477651
 20
-36.984838338820737
 30
0.0
  0
VERTEX
  5
267
  8
0
 10
22.37818142126525
 20
-36.984838338820737
 30
0.0
  0
SEQEND
  5
268
  8
0
  0
LINE
  5
7B
  8
0
 10
22.72810043040954
 20
-30.97755227238849
 30
0.0
 11
28.452453732548751
 21
-30.977552272387591
 31
0.0
  0
POLYLINE
  5
7C
  8
0
 66
     1
 10
0.0
 20
0.0
 30
0.0
 70
     1
  0
VERTEX
  5
269
  8
0
 10
22.72810043040954
 20
-30.97755227238849
 30
0.0
  0
VERTEX
  5
26A
  8
0
 10
28.884588191847801
 20
-30.977552272387591
 30
0.0
  0
VERTEX
  5
26B
  8
0
 10
28.884588191847801
 20
-29.4160819394383
 30
0.0
  0
VERTEX
  5
26C
  8
0
 10
22.72810043040954
 20
-29.4160819394383
 30
0.0
  0
SEQEND
  5
26D
  8
0
  0
LINE
  5
7D
  8
0
 10
36.225420862979263
 20
-162.0
 30
0.0
 11
-36.225420862980172
 21
-162.0
 31
0.0
  0
LINE
  5
80
  8
0
 10
98.429263941166951
 20
-40.770736058831972
 30
0.0
 11
0.0
 21
-139.19999999999979
 31
0.0
  0
LINE
  5
81
  8
0
 10
87.822662223368752
 20
-104.6931890780961
 30
0.0
 11
37.699999999998909
 21
-154.81585130146499
 31
0.0
  0
LINE
  5
82
  8
0
 10
96.520075631964573
 20
-99.248466862960413
 30
0.0
 11
39.971608769003069
 21
-42.699999999998909
 31
0.0
  0
LINE
  5
83
  8
0
 10
35.82947314527155
 20
-52.700000000000728
 30
0.0
 11
87.822662223368752
 21
-104.6931890780961
 31
0.0
  0
LINE
  5
84
  8
0
 10
87.822662223368752
 20
-104.6931890780961
 30
0.0
 11
96.520075631964573
 21
-99.248466862960413
 31
0.0
  0
INSERT
  5
85
  8
0
  6
CONTINUOUS
  2
*U2
 10
0.0
 20
0.0
 30
0.0
  0
POLYLINE
  5
87
  8
0
 66
     1
 10
0.0
 20
0.0
 30
0.0
 70
     1
  0
VERTEX
  5
272
  8
0
 10
74.24204927662322
 20
-47.135550931815942
 30
0.0
  0
VERTEX
  5
273
  8
0
 10
69.181172456435888
 20
-42.074674111629513
 30
0.0
  0
VERTEX
  5
274
  8
0
 10
67.514468927947746
 20
-43.741377640117662
 30
0.0
  0
VERTEX
  5
275
  8
0
 10
72.575345748135078
 20
-48.802254460304077
 30
0.0
  0
SEQEND
  5
276
  8
0
  0
POLYLINE
  5
88
  8
0
 66
     1
 10
0.0
 20
0.0
 30
0.0
 70
     1
  0
VERTEX
  5
277
  8
0
 10
62.931929874997877
 20
-59.302330557040932
 30
0.0
  0
VERTEX
  5
278
  8
0
 10
59.920600659581389
 20
-56.291001341623542
 30
0.0
  0
VERTEX
  5
279
  8
0
 10
60.727556250139962
 20
-55.484045751065871
 30
0.0
  0
VERTEX
  5
27A
  8
0
 10
63.73888546555645
 20
-58.495374966483269
 30
0.0
  0
SEQEND
  5
27B
  8
0
  0
LINE
  5
89
  8
0
 10
67.739248075426076
 20
-54.000152148148572
 30
0.0
 11
63.691519037574828
 21
-49.952423110298241
 31
0.0
  0
POLYLINE
  5
8A
  8
0
 66
     1
 10
0.0
 20
0.0
 30
0.0
 70
     1
  0
VERTEX
  5
27C
  8
0
 10
67.739248075426076
 20
-54.000152148148572
 30
0.0
  0
VERTEX
  5
27D
  8
0
 10
63.385953831020743
 20
-49.646857903744149
 30
0.0
  0
VERTEX
  5
27E
  8
0
 10
64.490080092071366
 20
-48.542731642693518
 30
0.0
  0
VERTEX
  5
27F
  8
0
 10
68.8433743364767
 20
-52.896025887097949
 30
0.0
  0
SEQEND
  5
280
  8
0
  0
POLYLINE
  5
8B
  8
0
 66
     1
 10
0.0
 20
0.0
 30
0.0
 70
     1
  0
VERTEX
  5
281
  8
0
 10
92.064449068182512
 20
-64.957950723375234
 30
0.0
  0
VERTEX
  5
282
  8
0
 10
97.125325888368025
 20
-70.018827543561656
 30
0.0
  0
VERTEX
  5
283
  8
0
 10
95.458622359879868
 20
-71.685531072049798
 30
0.0
  0
VERTEX
  5
284
  8
0
 10
90.397745539694355
 20
-66.624654251863376
 30
0.0
  0
SEQEND
  5
285
  8
0
  0
POLYLINE
  5
8C
  8
0
 66
     1
 10
0.0
 20
0.0
 30
0.0
 70
     1
  0
VERTEX
  5
286
  8
0
 10
79.897669442956612
 20
-76.268070124999653
 30
0.0
  0
VERTEX
  5
287
  8
0
 10
82.908998658374017
 20
-79.279399340416148
 30
0.0
  0
VERTEX
  5
288
  8
0
 10
83.715954248931666
 20
-78.472443749858485
 30
0.0
  0
VERTEX
  5
289
  8
0
 10
80.704625033515185
 20
-75.461114534442004
 30
0.0
  0
SEQEND
  5
28A
  8
0
  0
LINE
  5
8D
  8
0
 10
85.199847851848972
 20
-71.460751924572378
 30
0.0
 11
89.247576889700213
 21
-75.508480962422709
 31
0.0
  0
POLYLINE
  5
8E
  8
0
 66
     1
 10
0.0
 20
0.0
 30
0.0
 70
     1
  0
VERTEX
  5
28B
  8
0
 10
85.199847851848972
 20
-71.460751924572378
 30
0.0
  0
VERTEX
  5
28C
  8
0
 10
89.553142096254305
 20
-75.814046168976802
 30
0.0
  0
VERTEX
  5
28D
  8
0
 10
90.657268357304915
 20
-74.709919907926178
 30
0.0
  0
VERTEX
  5
28E
  8
0
 10
86.303974112899596
 20
-70.356625663521754
 30
0.0
  0
SEQEND
  5
28F
  8
0
  0
LINE
  5
8F
  8
0
 10
40.0
 20
-42.63145750507374
 30
0.0
 11
0.0
 21
-139.19999999999979
 31
0.0
  0
LINE
  5
90
  8
0
 10
0.0
 20
-139.19999999999979
 30
0.0
 11
37.699999999998909
 21
-154.81585130146499
 31
0.0
  0
INSERT
  5
91
  8
0
  6
CONTINUOUS
  2
*U3
 10
0.0
 20
0.0
 30
0.0
  0
INSERT
  5
92
  8
0
  6
CONTINUOUS
  2
*U4
 10
0.0
 20
0.0
 30
0.0
  0
INSERT
  5
93
  8
0
  6
CONTINUOUS
  2
*U5
 10
0.0
 20
0.0
 30
0.0
  0
LINE
  5
94
  8
0
 10
37.699999999997999
 20
-16.274089938300669
 30
0.0
 11
-37.700000000001637
 21
-16.274089938300669
 31
0.0
  0
LINE
  5
95
  8
0
 10
-45.000000000000909
 20
-16.274089938300669
 30
0.0
 11
44.999999999997272
 21
-16.274089938300669
 31
0.0
  0
LINE
  5
96
  8
0
 10
-40.000000000000909
 20
0.0
 30
0.0
 11
-40.000000000000909
 21
-1.5
 31
0.0
  0
LINE
  5
97
  8
0
 10
-39.999999999999091
 20
-13.93425172568277
 30
0.0
 11
-40.0
 21
-14.274089938300669
 31
0.0
  0
LINE
  5
98
  8
0
 10
40.000000000000909
 20
0.0
 30
0.0
 11
40.000000000000909
 21
-1.5
 31
0.0
  0
LINE
  5
99
  8
0
 10
39.999999999999091
 20
-13.93425172568277
 30
0.0
 11
40.0
 21
-14.274089938300669
 31
0.0
  0
LINE
  5
9A
  8
0
 10
40.0
 20
-18.299766489235481
 30
0.0
 11
40.000000000000909
 21
-42.631457505072369
 31
0.0
  0
LINE
  5
9B
  8
0
 10
-45.0
 20
-14.274089938300669
 30
0.0
 11
44.999999999999091
 21
-14.274089938300669
 31
0.0
  0
LINE
  5
9C
  8
0
 10
-45.000000000000909
 20
-14.274089938300669
 30
0.0
 11
-45.000000000001819
 21
-16.274089938300669
 31
0.0
  0
LINE
  5
9D
  8
0
 10
44.999999999999091
 20
-14.274089938300669
 30
0.0
 11
44.999999999998167
 21
-16.274089938300669
 31
0.0
  0
LINE
  5
9E
  8
0
 10
-43.876028035110721
 20
-1.5
 30
0.0
 11
0.0
 21
-1.5
 31
0.0
  0
LINE
  5
9F
  8
0
 10
0.0
 20
-13.93425172568277
 30
0.0
 11
-45.599321298888754
 21
-13.93425172568277
 31
0.0
  0
LINE
  5
A0
  8
0
 10
-45.599321298888754
 20
-13.93425172568277
 30
0.0
 11
-43.876028035110721
 21
-1.5
 31
0.0
  0
LINE
  5
A1
  8
0
 10
43.876028035110721
 20
-1.5
 30
0.0
 11
0.0
 21
-1.5
 31
0.0
  0
LINE
  5
A2
  8
0
 10
0.0
 20
-13.93425172568277
 30
0.0
 11
45.599321298888754
 21
-13.93425172568277
 31
0.0
  0
LINE
  5
A3
  8
0
 10
45.599321298888754
 20
-13.93425172568277
 30
0.0
 11
43.876028035110721
 21
-1.5
 31
0.0
  0
LINE
  5
A4
  8
0
 10
-39.999999999999091
 20
0.0
 30
0.0
 11
-40.000000000000909
 21
-1.5
 31
0.0
  0
LINE
  5
A5
  8
0
 10
-40.0
 20
-18.299766489231839
 30
0.0
 11
-40.0
 21
-42.699999999999811
 31
0.0
  0
LINE
  5
A6
  8
0
 10
-40.0
 20
0.0
 30
0.0
 11
40.0
 21
0.0
 31
0.0
  0
ARC
  5
A7
  8
0
 10
42.025676550934797
 20
-18.299766489235481
 30
0.0
 40
2.025676550934576
 50
90.0
 51
180.0
  0
ARC
  5
A8
  8
0
 10
-42.025676550936623
 20
-18.299766489231839
 30
0.0
 40
2.025676550934576
 50
0.0
 51
90.0
  0
LINE
  5
A9
  8
0
 10
-0.999999999998181
 20
-1.5
 30
0.0
 11
-0.9999999999990905
 21
-13.93425172568277
 31
0.0
  0
LINE
  5
AB
  8
0
 10
1.0
 20
-1.5
 30
0.0
 11
1.0
 21
-13.93425172568277
 31
0.0
  0
LINE
  5
AC
  8
0
 10
-11.561255671073919
 20
-1.5
 30
0.0
 11
-11.999999999999091
 21
-13.93425172568277
 31
0.0
  0
LINE
  5
AD
  8
0
 10
11.561255671073919
 20
-1.5
 30
0.0
 11
11.999999999999091
 21
-13.93425172568277
 31
0.0
  0
LINE
  5
AE
  8
0
 10
-32.114314359387208
 20
-1.5
 30
0.0
 11
-32.999999999999091
 21
-13.93425172568277
 31
0.0
  0
LINE
  5
AF
  8
0
 10
-33.739249474383541
 20
-1.5
 30
0.0
 11
-34.624935114995417
 21
-13.93425172568277
 31
0.0
  0
LINE
  5
B0
  8
0
 10
32.114314359387208
 20
-1.5
 30
0.0
 11
32.999999999999091
 21
-13.93425172568277
 31
0.0
  0
LINE
  5
B1
  8
0
 10
33.739249474383541
 20
-1.5
 30
0.0
 11
34.624935114995417
 21
-13.93425172568277
 31
0.0
  0
LINE
  5
B2
  8
0
 10
113.579670238887
 20
-78.936181062576907
 30
0.0
 11
60.263818937422002
 21
-25.620329761110948
 31
0.0
  0
LINE
  5
B3
  8
0
 10
55.101939434760432
 20
-20.458450258450291
 30
0.0
 11
118.7415497415486
 21
-84.098060565237574
 31
0.0
  0
LINE
  5
B4
  8
0
 10
70.144992693705717
 20
-12.48646481137029
 30
0.0
 11
69.084332521925717
 21
-13.547124983149841
 31
0.0
  0
LINE
  5
B5
  8
0
 10
60.291988807716727
 20
-22.33946869736247
 30
0.0
 11
60.051686903067093
 21
-22.579770602010282
 31
0.0
  0
LINE
  5
B6
  8
0
 10
126.7135351886309
 20
-69.055007306295465
 30
0.0
 11
125.6528750168509
 21
-70.115667478075011
 31
0.0
  0
LINE
  5
B7
  8
0
 10
116.8605313026392
 20
-78.908011192284903
 30
0.0
 11
116.6202293979904
 21
-79.148313096934089
 31
0.0
  0
LINE
  5
B8
  8
0
 10
113.773646209961
 20
-81.994896284963943
 30
0.0
 11
96.520075631964573
 21
-99.248466862960413
 31
0.0
  0
LINE
  5
B9
  8
0
 10
56.516152997133759
 20
-19.044236696077402
 30
0.0
 11
120.1557633039229
 21
-82.683847002866059
 31
0.0
  0
LINE
  5
BA
  8
0
 10
56.516152997133759
 20
-19.04423669607695
 30
0.0
 11
55.101939434759508
 21
-20.458450258449378
 31
0.0
  0
LINE
  5
BB
  8
0
 10
120.1557633039229
 20
-82.683847002866059
 30
0.0
 11
118.7415497415486
 21
-84.098060565238484
 31
0.0
  0
LINE
  5
BC
  8
0
 10
66.343566814230144
 20
-10.806359275455179
 30
0.0
 11
97.368603769388756
 21
-41.831396230612881
 31
0.0
  0
LINE
  5
BD
  8
0
 10
88.576260055177954
 20
-50.623739944823683
 30
0.0
 11
56.332670747228804
 21
-18.380150636875442
 31
0.0
  0
LINE
  5
BE
  8
0
 10
56.332670747228804
 20
-18.380150636875442
 30
0.0
 11
66.343566814230144
 21
-10.806359275455179
 31
0.0
  0
LINE
  5
BF
  8
0
 10
128.3936407245464
 20
-72.856433185770584
 30
0.0
 11
97.368603769388756
 21
-41.831396230612881
 31
0.0
  0
LINE
  5
C0
  8
0
 10
88.576260055177954
 20
-50.623739944823683
 30
0.0
 11
120.8198493631253
 21
-82.867329252771924
 31
0.0
  0
LINE
  5
C1
  8
0
 10
120.8198493631253
 20
-82.867329252771924
 30
0.0
 11
128.3936407245464
 21
-72.856433185770584
 31
0.0
  0
LINE
  5
C2
  8
0
 10
70.144992693706627
 20
-12.486464811371659
 30
0.0
 11
69.084332521925717
 21
-13.547124983149841
 31
0.0
  0
LINE
  5
C3
  8
0
 10
57.20510371503952
 20
-25.426353790036959
 30
0.0
 11
39.999999999996362
 21
-42.631457505081237
 31
0.0
  0
LINE
  5
C4
  8
0
 10
70.144992693705717
 20
-12.486464811371199
 30
0.0
 11
126.7135351886299
 21
-69.05500730629501
 31
0.0
  0
ARC
  5
C5
  8
0
 10
115.20601583561709
 20
-83.427265910620008
 30
0.0
 40
2.025676550934576
 50
45.0
 51
135.0
  0
ARC
  5
C6
  8
0
 10
55.772734089381629
 20
-23.993984164379071
 30
0.0
 40
2.025676550934576
 50
315.0
 51
45.0
  0
LINE
  5
C7
  8
0
 10
96.661496988202998
 20
-41.124289449427117
 30
0.0
 11
87.869153273991273
 21
-49.916633163637918
 31
0.0
  0
LINE
  5
C8
  8
0
 10
98.075710550574513
 20
-42.538503011799541
 30
0.0
 11
89.283366836363726
 21
-51.33084672601035
 31
0.0
  0
LINE
  5
C9
  8
0
 10
89.193561485340055
 20
-33.656353946565112
 30
0.0
 11
80.09097868093977
 21
-42.138458570585499
 31
0.0
  0
LINE
  5
CA
  8
0
 10
105.54364605343559
 20
-50.006438514660651
 30
0.0
 11
97.061541429415229
 21
-59.109021319061867
 31
0.0
  0
LINE
  5
CB
  8
0
 10
74.660354312708478
 20
-19.123146773933509
 30
0.0
 11
65.241736276021584
 21
-27.289216165668218
 31
0.0
  0
LINE
  5
CC
  8
0
 10
73.511351673906574
 20
-17.97414413513161
 30
0.0
 11
64.092733637219681
 21
-26.140213526866319
 31
0.0
  0
LINE
  5
CD
  8
0
 10
120.0768532260672
 20
-64.53964568729225
 30
0.0
 11
111.91078383433251
 21
-73.958263723979144
 31
0.0
  0
LINE
  5
CE
  8
0
 10
121.2258558648691
 20
-65.688648326094153
 30
0.0
 11
113.05978647313439
 21
-75.107266362781047
 31
0.0
  0
VIEWPORT
  5
1BF
 67
     1
  8
0
  6
CONTINUOUS
 10
128.5
 20
97.5
 30
0.0
 40
348.79216438356173
 41
222.18000000000001
 68
     1
 69
     1
1001
ACAD
1000
MVIEW
1002
{
1070
    16
1010
0.0
1020
0.0
1030
0.0
1010
0.0
1020
0.0
1030
1.0
1040
0.0
1040
222.18000000000001
1040
128.5
1040
97.5
1040
50.0
1040
0.0
1040
0.0
1070
     0
1070
  1000
1070
     1
1070
     1
1070
     0
1070
     0
1070
     0
1070
     0
1040
0.0
1040
0.0
1040
0.0
1040
10.0
1040
10.0
1040
10.0
1040
10.0
1070
     0
1002
{
1002
}
1002
}
  0
VIEWPORT
  5
1C3
 67
     1
  8
0
  6
CONTINUOUS
 10
128.5
 20
97.5
 30
0.0
 40
205.59999999999999
 41
156.0
 68
     2
 69
     2
1001
ACAD
1000
MVIEW
1002
{
1070
    16
1010
30714.317967474461
1020
7339.7553224022467
1030
0.0
1010
-38962.971254248441
1020
-38962.97125424847
1030
38962.97125424847
1040
0.0000000000000005
1040
210.0166259994316
1040
-16423.379115658561
1040
-15562.292613175539
1040
50.0
1040
0.0
1040
0.0
1070
     0
1070
  1000
1070
     1
1070
     3
1070
     0
1070
     0
1070
     0
1070
     0
1040
0.0
1040
0.0
1040
0.0
1040
10.0
1040
10.0
1040
10.0
1040
10.0
1070
     0
1002
{
1002
}
1002
}
  0
ENDSEC
  0
EOF
