  0
SECTION
  2
HEADER
  9
$ACADVER
  1
AC1009
  9
$INSBASE
 10
0.0
 20
0.0
 30
0.0
  9
$EXTMIN
 10
-45.599321298888754
 20
-194.60000000000031
 30
0.0
  9
$EXTMAX
 10
94.356545635251663
 20
0.0
 30
0.0
  9
$LIMMIN
 10
0.0
 20
0.0
  9
$LIMMAX
 10
420.0
 20
297.0
  9
$ORTHOMODE
 70
     0
  9
$REGENMODE
 70
     1
  9
$FILLMODE
 70
     1
  9
$QTEXTMODE
 70
     0
  9
$MIRRTEXT
 70
     0
  9
$DRAGMODE
 70
     2
  9
$LTSCALE
 40
1.0
  9
$OSMODE
 70
   127
  9
$ATTMODE
 70
     1
  9
$TEXTSIZE
 40
2.5
  9
$TRACEWID
 40
1.0
  9
$TEXTSTYLE
  7
STANDARD
  9
$CLAYER
  8
0
  9
$CELTYPE
  6
CONTINUOUS
  9
$CECOLOR
 62
   256
  9
$DIMSCALE
 40
1.0
  9
$DIMASZ
 40
2.5
  9
$DIMEXO
 40
0.625
  9
$DIMDLI
 40
3.75
  9
$DIMRND
 40
0.0
  9
$DIMDLE
 40
0.0
  9
$DIMEXE
 40
1.25
  9
$DIMTP
 40
0.0
  9
$DIMTM
 40
0.0
  9
$DIMTXT
 40
2.5
  9
$DIMCEN
 40
2.5
  9
$DIMTSZ
 40
0.0
  9
$DIMTOL
 70
     0
  9
$DIMLIM
 70
     0
  9
$DIMTIH
 70
     0
  9
$DIMTOH
 70
     0
  9
$DIMSE1
 70
     0
  9
$DIMSE2
 70
     0
  9
$DIMTAD
 70
     1
  9
$DIMZIN
 70
     8
  9
$DIMBLK
  1

  9
$DIMASO
 70
     1
  9
$DIMSHO
 70
     1
  9
$DIMPOST
  1

  9
$DIMAPOST
  1

  9
$DIMALT
 70
     0
  9
$DIMALTD
 70
     3
  9
$DIMALTF
 40
0.03937007874016
  9
$DIMLFAC
 40
1.0
  9
$DIMTOFL
 70
     1
  9
$DIMTVP
 40
0.0
  9
$DIMTIX
 70
     0
  9
$DIMSOXD
 70
     0
  9
$DIMSAH
 70
     0
  9
$DIMBLK1
  1

  9
$DIMBLK2
  1

  9
$DIMSTYLE
  2
STANDARD
  9
$DIMCLRD
 70
     0
  9
$DIMCLRE
 70
     0
  9
$DIMCLRT
 70
     0
  9
$DIMTFAC
 40
1.0
  9
$DIMGAP
 40
0.625
  9
$LUNITS
 70
     2
  9
$LUPREC
 70
     4
  9
$SKETCHINC
 40
1.0
  9
$FILLETRAD
 40
3.0
  9
$AUNITS
 70
     0
  9
$AUPREC
 70
     0
  9
$MENU
  1
.
  9
$ELEVATION
 40
0.0
  9
$PELEVATION
 40
0.0
  9
$THICKNESS
 40
0.0
  9
$LIMCHECK
 70
     0
  9
$BLIPMODE
 70
     0
  9
$CHAMFERA
 40
0.0
  9
$CHAMFERB
 40
0.0
  9
$SKPOLY
 70
     0
  9
$TDCREATE
 40
2455559.2317578131
  9
$TDUPDATE
 40
2457377.722766886
  9
$TDINDWG
 40
2.9208997917000001
  9
$TDUSRTIMER
 40
2.9208958102000002
  9
$USRTIMER
 70
     1
  9
$ANGBASE
 50
0.0
  9
$ANGDIR
 70
     0
  9
$PDMODE
 70
     0
  9
$PDSIZE
 40
0.0
  9
$PLINEWID
 40
0.0
  9
$COORDS
 70
     2
  9
$SPLFRAME
 70
     0
  9
$SPLINETYPE
 70
     6
  9
$SPLINESEGS
 70
     8
  9
$ATTDIA
 70
     1
  9
$ATTREQ
 70
     1
  9
$HANDLING
 70
     1
  9
$HANDSEED
  5
2D9
  9
$SURFTAB1
 70
     6
  9
$SURFTAB2
 70
     6
  9
$SURFTYPE
 70
     6
  9
$SURFU
 70
     6
  9
$SURFV
 70
     6
  9
$UCSNAME
  2

  9
$UCSORG
 10
0.0
 20
0.0
 30
0.0
  9
$UCSXDIR
 10
1.0
 20
0.0
 30
0.0
  9
$UCSYDIR
 10
0.0
 20
1.0
 30
0.0
  9
$PUCSNAME
  2

  9
$PUCSORG
 10
0.0
 20
0.0
 30
0.0
  9
$PUCSXDIR
 10
1.0
 20
0.0
 30
0.0
  9
$PUCSYDIR
 10
0.0
 20
1.0
 30
0.0
  9
$USERI1
 70
     0
  9
$USERI2
 70
     0
  9
$USERI3
 70
     0
  9
$USERI4
 70
     0
  9
$USERI5
 70
     0
  9
$USERR1
 40
0.0
  9
$USERR2
 40
0.0
  9
$USERR3
 40
0.0
  9
$USERR4
 40
0.0
  9
$USERR5
 40
0.0
  9
$WORLDVIEW
 70
     1
  9
$SHADEDGE
 70
     3
  9
$SHADEDIF
 70
    70
  9
$TILEMODE
 70
     1
  9
$MAXACTVP
 70
    64
  9
$PLIMCHECK
 70
     0
  9
$PEXTMIN
 10
25.699999999999989
 20
19.5
 30
0.0
  9
$PEXTMAX
 10
231.30000000000001
 20
175.5
 30
0.0
  9
$PLIMMIN
 10
-20.0
 20
-7.5
  9
$PLIMMAX
 10
277.0
 20
202.5
  9
$UNITMODE
 70
     0
  9
$VISRETAIN
 70
     1
  9
$PLINEGEN
 70
     0
  9
$PSLTSCALE
 70
     1
  0
ENDSEC
  0
SECTION
  2
TABLES
  0
TABLE
  2
VPORT
 70
     1
  0
VPORT
  2
*ACTIVE
 70
     0
 10
0.0
 20
0.0
 11
1.0
 21
1.0
 12
16458.127776663969
 22
5824.9361560382022
 13
0.0
 23
0.0
 14
10.0
 24
10.0
 15
10.0
 25
10.0
 16
-38962.971254248441
 26
-38962.97125424847
 36
38962.97125424847
 17
30714.317967474461
 27
7339.7553224022467
 37
0.0
 40
45085.451174768772
 41
1.56986301369863
 42
50.0
 43
0.0
 44
0.0
 50
0.0
 51
0.0000000000000313
 71
     0
 72
  1000
 73
     1
 74
     3
 75
     0
 76
     0
 77
     0
 78
     0
  0
ENDTAB
  0
TABLE
  2
LTYPE
 70
     4
  0
LTYPE
  2
CONTINUOUS
 70
     0
  3
Solid line
 72
    65
 73
     0
 40
0.0
  0
ENDTAB
  0
TABLE
  2
LAYER
 70
    10
  0
LAYER
  2
0
 70
     0
 62
     7
  6
CONTINUOUS
  0
ENDTAB
  0
TABLE
  2
STYLE
 70
     4
  0
STYLE
  2
STANDARD
 70
     0
 40
0.0
 41
1.0
 50
0.0
 71
     0
 42
2.5
  3
txt
  4

  0
STYLE
  2
INSCRIPTIONS
 70
     0
 40
0.0
 41
0.9
 50
0.0
 71
     0
 42
2.5
  3
txt
  4

  0
ENDTAB
  0
TABLE
  2
VIEW
 70
     1
  0
ENDTAB
  0
TABLE
  2
UCS
 70
     0
  0
ENDTAB
  0
TABLE
  2
APPID
 70
     7
  0
APPID
  2
ACAD
 70
     0
  0
APPID
  2
ACAD_PSEXT
 70
     0
  0
APPID
  2
ACAECLAYERSTANDARD
 70
     0
  0
APPID
  2
ACAD_NAV_VCDISPLAY
 70
     0
  0
APPID
  2
REVIT
 70
     0
  0
APPID
  2
ACAD_EXEMPT_FROM_CAD_STANDARDS
 70
     0
  0
APPID
  2
ACAD_MLEADERVER
 70
     0
  0
ENDTAB
  0
TABLE
  2
DIMSTYLE
 70
     1
  0
DIMSTYLE
  2
STANDARD
 70
     0
  3

  4

  5

  6

  7

 40
1.0
 41
0.18
 42
0.0625
 43
0.38
 44
0.18
 45
0.0
 46
0.0
 47
0.0
 48
0.0
140
0.18
141
0.09
142
0.0
143
25.399999999999999
144
1.0
145
0.0
146
1.0
147
0.09
 71
     0
 72
     0
 73
     1
 74
     1
 75
     0
 76
     0
 77
     0
 78
     0
170
     0
171
     2
172
     0
173
     0
174
     0
175
     0
176
     0
177
     0
178
     0
  0
ENDTAB
  0
ENDSEC
  0
SECTION
  2
BLOCKS
  0
BLOCK
  8
0
  2
$MODEL_SPACE
 70
     0
 10
0.0
 20
0.0
 30
0.0
  3
$MODEL_SPACE
  1

  0
ENDBLK
  5
D
  8
0
  0
BLOCK
 67
     1
  8
0
  2
$PAPER_SPACE
 70
     0
 10
0.0
 20
0.0
 30
0.0
  3
$PAPER_SPACE
  1

  0
ENDBLK
  5
1BF
 67
     1
  8
0
  0
BLOCK
  8
0
  2
*U2
 70
     1
 10
0.0
 20
0.0
 30
0.0
  3
*U2
  1

  0
TEXT
  5
273
  8
0
  6
CONTINUOUS
 10
53.492999679389129
 20
-78.882212710193954
 30
0.0
 40
18.710999999999999
  1
75
 50
272.4999999999996
 41
0.9
  7
INSCRIPTIONS
  0
ENDBLK
  5
275
  8
0
  0
BLOCK
  8
0
  2
*U3
 70
     1
 10
0.0
 20
0.0
 30
0.0
  3
*U3
  1

  0
TEXT
  5
295
  8
0
  6
CONTINUOUS
 10
-21.852895868647469
 20
-38.599963190122011
 30
0.0
 40
18.710999999999999
  1
75
 41
0.8
  7
INSCRIPTIONS
  0
ENDBLK
  5
297
  8
0
  0
BLOCK
  8
0
  2
*U4
 70
     1
 10
0.0
 20
0.0
 30
0.0
  3
*U4
  1

  0
TEXT
  5
299
  8
0
  6
CONTINUOUS
 10
3.4968990546240089
 20
-28.461570822115029
 30
0.0
 40
8.0999999999999996
  1
87,5°
 41
0.7
  7
INSCRIPTIONS
  0
ENDBLK
  5
29B
  8
0
  0
BLOCK
  8
0
  2
*U5
 70
     1
 10
0.0
 20
0.0
 30
0.0
  3
*U5
  1

  0
TEXT
  5
29D
  8
0
  6
CONTINUOUS
 10
1.5476377216864421
 20
-39.439648727756868
 30
0.0
 40
8.0999999999999996
  1
PP-MD
 41
0.6
  7
INSCRIPTIONS
  0
ENDBLK
  5
29F
  8
0
  0
ENDSEC
  0
SECTION
  2
ENTITIES
  0
LINE
  5
4B
  8
0
 10
-0.000000000001819
 20
0.0
 30
0.0
 11
-0.000000000001819
 21
-92.699999999993452
 31
0.0
  0
LINE
  5
4F
  8
0
 10
-0.000000000001819
 20
-92.699999999993452
 30
0.0
 11
0.0
 21
-194.5999999999994
 31
0.0
  0
LINE
  5
50
  8
0
 10
-37.700000000000728
 20
-52.699999999999811
 30
0.0
 11
-37.700000000000728
 21
-190.01153622505259
 31
0.0
  0
LINE
  5
52
  8
0
 10
37.699999999998909
 20
-52.699999999999811
 30
0.0
 11
37.699999999998909
 21
-53.318066221691879
 31
0.0
  0
LINE
  5
53
  8
0
 10
37.699999999998909
 20
-128.7898986830059
 30
0.0
 11
37.699999999998909
 21
-190.01153622505259
 31
0.0
  0
LINE
  5
54
  8
0
 10
40.0
 20
-42.699999999999811
 30
0.0
 11
-40.000000000001819
 21
-42.699999999999811
 31
0.0
  0
LINE
  5
55
  8
0
 10
-37.700000000000728
 20
-52.699999999999811
 30
0.0
 11
-19.378902442736031
 21
-52.699999999999811
 31
0.0
  0
LINE
  5
56
  8
0
 10
19.378902442736031
 20
-52.699999999999811
 30
0.0
 11
37.699999999998909
 21
-52.699999999999811
 31
0.0
  0
ARC
  5
57
  8
0
 10
0.0
 20
-37.657268160786771
 30
0.0
 40
27.051738636491951
 50
239.34608426254911
 51
300.65391573745092
  0
ARC
  5
58
  8
0
 10
0.0
 20
-37.657268160786771
 30
0.0
 40
29.05173863649194
 50
239.34608426254911
 51
300.65391573745092
  0
ARC
  5
59
  8
0
 10
10.223402096423341
 20
-54.90702966404843
 30
0.0
 40
7.0
 50
300.65391573745092
 51
356.42366562502212
  0
ARC
  5
5A
  8
0
 10
10.223402096423341
 20
-54.90702966404843
 30
0.0
 40
9.0
 50
300.65391573745092
 51
356.42366562502212
  0
ARC
  5
5B
  8
0
 10
-10.22340209642516
 20
-54.907029664047514
 30
0.0
 40
7.0
 50
183.57633437497779
 51
239.34608426254911
  0
ARC
  5
5C
  8
0
 10
-10.22340209642516
 20
-54.907029664047514
 30
0.0
 40
9.0
 50
183.57633437497779
 51
239.34608426254911
  0
LINE
  5
5D
  8
0
 10
-17.20977014580512
 20
-55.343677667133299
 30
0.0
 11
-17.93612395185119
 21
-43.722016770414477
 31
0.0
  0
LINE
  5
5E
  8
0
 10
-19.20587530277135
 20
-55.468434239443923
 30
0.0
 11
-19.940026394585399
 21
-43.722016770414477
 31
0.0
  0
LINE
  5
5F
  8
0
 10
17.209770145803301
 20
-55.343677667135118
 30
0.0
 11
17.936123951848462
 21
-43.722016770413568
 31
0.0
  0
LINE
  5
60
  8
0
 10
19.205875302769531
 20
-55.468434239444832
 30
0.0
 11
19.940026394585399
 21
-43.722016770413568
 31
0.0
  0
LINE
  5
61
  8
0
 10
-19.940026394584489
 20
-43.722016770414477
 30
0.0
 11
-17.93612395185119
 21
-43.722016770414477
 31
0.0
  0
LINE
  5
62
  8
0
 10
17.936123951848462
 20
-43.722016770414477
 30
0.0
 11
19.940026394585399
 21
-43.722016770414477
 31
0.0
  0
LINE
  5
63
  8
0
 10
17.350585836785282
 20
-53.090626611416162
 30
0.0
 11
9.0584549632003473
 21
-53.090626611416162
 31
0.0
  0
LINE
  5
64
  8
0
 10
17.350585836785282
 20
-52.090626611416148
 30
0.0
 11
9.0584549632003473
 21
-52.090626611416148
 31
0.0
  0
LINE
  5
65
  8
0
 10
8.1153077100243536
 20
-53.758251433603618
 30
0.0
 11
4.3820533808111568
 21
-64.35172772498845
 31
0.0
  0
LINE
  5
66
  8
0
 10
7.1721604568474504
 20
-53.425876255790172
 30
0.0
 11
3.2655811223121409
 21
-64.511179294747294
 31
0.0
  0
ARC
  5
67
  8
0
 10
9.0584549632003473
 20
-54.090626611416148
 30
0.0
 40
2.0
 50
90.0
 51
160.5869973240558
  0
ARC
  5
68
  8
0
 10
9.0584549632003473
 20
-54.090626611416148
 30
0.0
 40
0.9999999999998863
 50
90.0
 51
160.5869973240558
  0
LINE
  5
69
  8
0
 10
12.169330608953709
 20
-54.98113689328602
 30
0.0
 11
10.790958604383381
 21
-58.892403006836503
 31
0.0
  0
LINE
  5
6A
  8
0
 10
13.224019560268969
 20
-55.352820558323401
 30
0.0
 11
11.845647555700451
 21
-59.264086671873883
 31
0.0
  0
LINE
  5
6B
  8
0
 10
12.169330608953709
 20
-54.98113689328602
 30
0.0
 11
13.224019560268969
 21
-55.352820558323401
 31
0.0
  0
LINE
  5
6C
  8
0
 10
10.790958604384279
 20
-58.892403006836503
 30
0.0
 11
11.845647555700451
 21
-59.264086671873883
 31
0.0
  0
LINE
  5
6D
  8
0
 10
10.66900128921043
 20
-59.238468882054804
 30
0.0
 11
11.723690240525681
 21
-59.610152547093087
 31
0.0
  0
LINE
  5
6E
  8
0
 10
10.66900128921133
 20
-59.238468882054804
 30
0.0
 11
10.925154982726781
 21
-60.193841228093333
 31
0.0
  0
LINE
  5
6F
  8
0
 10
10.925154982726781
 20
-60.193841228093333
 30
0.0
 11
11.723690240525681
 21
-59.610152547093087
 31
0.0
  0
LINE
  5
70
  8
0
 10
37.699999999998909
 20
-52.699999999999811
 30
0.0
 11
40.0
 21
-42.699999999999811
 31
0.0
  0
LINE
  5
71
  8
0
 10
-37.700000000000728
 20
-52.699999999999811
 30
0.0
 11
-40.000000000001819
 21
-42.699999999999811
 31
0.0
  0
POLYLINE
  5
72
  8
0
 66
     1
 10
0.0
 20
0.0
 30
0.0
 70
     1
  0
VERTEX
  5
254
  8
0
 10
-22.98393167454924
 20
-21.525371376104879
 30
0.0
  0
VERTEX
  5
255
  8
0
 10
-30.141092311156171
 20
-21.525371376104879
 30
0.0
  0
VERTEX
  5
256
  8
0
 10
-30.141092311156171
 20
-23.882446110547789
 30
0.0
  0
VERTEX
  5
257
  8
0
 10
-22.98393167454924
 20
-23.882446110547789
 30
0.0
  0
SEQEND
  5
258
  8
0
  0
POLYLINE
  5
74
  8
0
 66
     1
 10
0.0
 20
0.0
 30
0.0
 70
     1
  0
VERTEX
  5
259
  8
0
 10
-22.378181421268891
 20
-38.126045879221238
 30
0.0
  0
VERTEX
  5
25A
  8
0
 10
-26.63684403848038
 20
-38.126045879221238
 30
0.0
  0
VERTEX
  5
25B
  8
0
 10
-26.63684403848038
 20
-36.984838338821653
 30
0.0
  0
VERTEX
  5
25C
  8
0
 10
-22.378181421267978
 20
-36.984838338821653
 30
0.0
  0
SEQEND
  5
25D
  8
0
  0
LINE
  5
75
  8
0
 10
-22.728100430413178
 20
-30.977552272389399
 30
0.0
 11
-28.452453732552382
 21
-30.977552272389399
 31
0.0
  0
POLYLINE
  5
76
  8
0
 66
     1
 10
0.0
 20
0.0
 30
0.0
 70
     1
  0
VERTEX
  5
25E
  8
0
 10
-22.728100430413178
 20
-30.977552272389399
 30
0.0
  0
VERTEX
  5
25F
  8
0
 10
-28.884588191850529
 20
-30.977552272389399
 30
0.0
  0
VERTEX
  5
260
  8
0
 10
-28.884588191851439
 20
-29.416081939439209
 30
0.0
  0
VERTEX
  5
261
  8
0
 10
-22.728100430413178
 20
-29.416081939439209
 30
0.0
  0
SEQEND
  5
262
  8
0
  0
LINE
  5
77
  8
0
 10
36.225420862978361
 20
-194.5999999999994
 30
0.0
 11
-36.225420862980172
 21
-194.60000000000031
 31
0.0
  0
LINE
  5
78
  8
0
 10
37.699999999998909
 20
-190.01153622505171
 30
0.0
 11
-37.700000000000728
 21
-190.01153622505259
 31
0.0
  0
LINE
  5
79
  8
0
 10
-37.700000000000728
 20
-190.01153622505259
 30
0.0
 11
-36.225420862980172
 21
-194.60000000000031
 31
0.0
  0
LINE
  5
7A
  8
0
 10
37.699999999998909
 20
-190.01153622505259
 30
0.0
 11
36.225420862978361
 21
-194.60000000000031
 31
0.0
  0
POLYLINE
  5
7B
  8
0
 66
     1
 10
0.0
 20
0.0
 30
0.0
 70
     1
  0
VERTEX
  5
263
  8
0
 10
22.983931674545602
 20
-21.52537137610307
 30
0.0
  0
VERTEX
  5
264
  8
0
 10
30.14109231115253
 20
-21.52537137610307
 30
0.0
  0
VERTEX
  5
265
  8
0
 10
30.14109231115253
 20
-23.88244611054597
 30
0.0
  0
VERTEX
  5
266
  8
0
 10
22.983931674545602
 20
-23.88244611054597
 30
0.0
  0
SEQEND
  5
267
  8
0
  0
POLYLINE
  5
7C
  8
0
 66
     1
 10
0.0
 20
0.0
 30
0.0
 70
     1
  0
VERTEX
  5
268
  8
0
 10
22.37818142126525
 20
-38.126045879220328
 30
0.0
  0
VERTEX
  5
269
  8
0
 10
26.636844038477651
 20
-38.126045879219419
 30
0.0
  0
VERTEX
  5
26A
  8
0
 10
26.636844038477651
 20
-36.984838338820737
 30
0.0
  0
VERTEX
  5
26B
  8
0
 10
22.37818142126525
 20
-36.984838338820737
 30
0.0
  0
SEQEND
  5
26C
  8
0
  0
LINE
  5
7D
  8
0
 10
22.72810043040954
 20
-30.97755227238849
 30
0.0
 11
28.452453732548751
 21
-30.977552272387591
 31
0.0
  0
POLYLINE
  5
7E
  8
0
 66
     1
 10
0.0
 20
0.0
 30
0.0
 70
     1
  0
VERTEX
  5
26D
  8
0
 10
22.72810043040954
 20
-30.97755227238849
 30
0.0
  0
VERTEX
  5
26E
  8
0
 10
28.884588191847801
 20
-30.977552272387591
 30
0.0
  0
VERTEX
  5
26F
  8
0
 10
28.884588191847801
 20
-29.4160819394383
 30
0.0
  0
VERTEX
  5
270
  8
0
 10
22.72810043040954
 20
-29.4160819394383
 30
0.0
  0
SEQEND
  5
271
  8
0
  0
LINE
  5
7F
  8
0
 10
36.225420862978361
 20
-139.5999999999994
 30
0.0
 11
-36.225420862980172
 21
-139.60000000000031
 31
0.0
  0
LINE
  5
82
  8
0
 10
92.604963416513783
 20
-88.500583177736189
 30
0.0
 11
-0.000000000001819
 21
-92.699999999999804
 31
0.0
  0
LINE
  5
83
  8
0
 10
38.317477959601092
 20
-53.29110655175009
 30
0.0
 11
37.699999999998909
 21
-53.318066221691879
 31
0.0
  0
LINE
  5
84
  8
0
 10
41.606379766946702
 20
-128.61934245902279
 30
0.0
 11
37.699999999998909
 21
-128.7898986830059
 31
0.0
  0
LINE
  5
85
  8
0
 10
51.697186573706858
 20
-130.4809594950093
 30
0.0
 11
48.207635584480158
 21
-50.557101768458772
 31
0.0
  0
LINE
  5
86
  8
0
 10
38.317477959601092
 20
-53.29110655175009
 30
0.0
 11
41.606379766946702
 21
-128.61934245902279
 31
0.0
  0
LINE
  5
87
  8
0
 10
41.606379766946702
 20
-128.61934245902279
 30
0.0
 11
51.697186573706858
 21
-130.4809594950093
 31
0.0
  0
LINE
  5
88
  8
0
 10
38.317477959601092
 20
-53.29110655175009
 30
0.0
 11
48.207635584480158
 21
-50.557101768458772
 31
0.0
  0
INSERT
  5
89
  8
0
  6
CONTINUOUS
  2
*U2
 10
0.0
 20
0.0
 30
0.0
  0
POLYLINE
  5
8B
  8
0
 66
     1
 10
0.0
 20
0.0
 30
0.0
 70
     1
  0
VERTEX
  5
276
  8
0
 10
70.502005176476814
 20
-77.007470165322502
 30
0.0
  0
VERTEX
  5
277
  8
0
 10
70.189814214233593
 20
-69.857121559744428
 30
0.0
  0
VERTEX
  5
278
  8
0
 10
67.834982892652988
 20
-69.959935715635311
 30
0.0
  0
VERTEX
  5
279
  8
0
 10
68.147173854897119
 20
-77.110284321213385
 30
0.0
  0
SEQEND
  5
27A
  8
0
  0
POLYLINE
  5
8C
  8
0
 66
     1
 10
0.0
 20
0.0
 30
0.0
 70
     1
  0
VERTEX
  5
27B
  8
0
 10
53.943553292023353
 20
-78.3367551302631
 30
0.0
  0
VERTEX
  5
27C
  8
0
 10
53.757793037665579
 20
-74.082145816219509
 30
0.0
  0
VERTEX
  5
27D
  8
0
 10
54.897914401357411
 20
-74.032367042450915
 30
0.0
  0
VERTEX
  5
27E
  8
0
 10
55.083674655716088
 20
-78.286976356493597
 30
0.0
  0
SEQEND
  5
27F
  8
0
  0
LINE
  5
8D
  8
0
 10
61.069979864112611
 20
-77.675356254763301
 30
0.0
 11
60.82028708001053
 21
-71.956451268555156
 31
0.0
  0
POLYLINE
  5
8E
  8
0
 66
     1
 10
0.0
 20
0.0
 30
0.0
 70
     1
  0
VERTEX
  5
280
  8
0
 10
61.069979864112611
 20
-77.675356254763301
 30
0.0
  0
VERTEX
  5
281
  8
0
 10
60.801437639636788
 20
-71.524728105509439
 30
0.0
  0
VERTEX
  5
282
  8
0
 10
62.361421798823351
 20
-71.456617726197237
 30
0.0
  0
VERTEX
  5
283
  8
0
 10
62.629964023299181
 20
-77.607245875451099
 30
0.0
  0
SEQEND
  5
284
  8
0
  0
POLYLINE
  5
8F
  8
0
 66
     1
 10
0.0
 20
0.0
 30
0.0
 70
     1
  0
VERTEX
  5
285
  8
0
 10
71.601417854973974
 20
-102.1881603945981
 30
0.0
  0
VERTEX
  5
286
  8
0
 10
71.913608817219028
 20
-109.3385090001761
 30
0.0
  0
VERTEX
  5
287
  8
0
 10
69.558777495638424
 20
-109.441323156067
 30
0.0
  0
VERTEX
  5
288
  8
0
 10
69.246586533394293
 20
-102.2909745504889
 30
0.0
  0
SEQEND
  5
289
  8
0
  0
POLYLINE
  5
90
  8
0
 66
     1
 10
0.0
 20
0.0
 30
0.0
 70
     1
  0
VERTEX
  5
28A
  8
0
 10
54.990121060632191
 20
-102.3070979330118
 30
0.0
  0
VERTEX
  5
28B
  8
0
 10
55.175881314989958
 20
-106.56170724705539
 30
0.0
  0
VERTEX
  5
28C
  8
0
 10
56.316002678682707
 20
-106.5119284732868
 30
0.0
  0
VERTEX
  5
28D
  8
0
 10
56.130242424324017
 20
-102.2573191592432
 30
0.0
  0
SEQEND
  5
28E
  8
0
  0
LINE
  5
91
  8
0
 10
62.147074138332748
 20
-102.3448709850813
 30
0.0
 11
62.396766922434843
 21
-108.0637759712895
 31
0.0
  0
POLYLINE
  5
92
  8
0
 66
     1
 10
0.0
 20
0.0
 30
0.0
 70
     1
  0
VERTEX
  5
28F
  8
0
 10
62.147074138332748
 20
-102.3448709850813
 30
0.0
  0
VERTEX
  5
290
  8
0
 10
62.41561636280948
 20
-108.4954991343361
 30
0.0
  0
VERTEX
  5
291
  8
0
 10
63.975600521995148
 20
-108.4273887550239
 30
0.0
  0
VERTEX
  5
292
  8
0
 10
63.707058297519332
 20
-102.2767606057691
 30
0.0
  0
SEQEND
  5
293
  8
0
  0
LINE
  5
93
  8
0
 10
37.699999999998909
 20
-53.318066221691879
 30
0.0
 11
0.000000000005457
 21
-92.699999999999804
 31
0.0
  0
LINE
  5
94
  8
0
 10
0.000000000005457
 20
-92.699999999999804
 30
0.0
 11
37.699999999998909
 21
-128.7898986830059
 31
0.0
  0
INSERT
  5
95
  8
0
  6
CONTINUOUS
  2
*U3
 10
0.0
 20
0.0
 30
0.0
  0
INSERT
  5
96
  8
0
  6
CONTINUOUS
  2
*U4
 10
0.0
 20
0.0
 30
0.0
  0
INSERT
  5
97
  8
0
  6
CONTINUOUS
  2
*U5
 10
0.0
 20
0.0
 30
0.0
  0
LINE
  5
98
  8
0
 10
37.699999999997999
 20
-16.274089938300669
 30
0.0
 11
-37.700000000001637
 21
-16.274089938300669
 31
0.0
  0
LINE
  5
99
  8
0
 10
-45.000000000000909
 20
-16.274089938300669
 30
0.0
 11
44.999999999997272
 21
-16.274089938300669
 31
0.0
  0
LINE
  5
9A
  8
0
 10
-40.000000000000909
 20
0.0
 30
0.0
 11
-40.000000000000909
 21
-1.5
 31
0.0
  0
LINE
  5
9B
  8
0
 10
-39.999999999999091
 20
-13.93425172568277
 30
0.0
 11
-40.0
 21
-14.274089938300669
 31
0.0
  0
LINE
  5
9C
  8
0
 10
40.000000000000909
 20
0.0
 30
0.0
 11
40.000000000000909
 21
-1.5
 31
0.0
  0
LINE
  5
9D
  8
0
 10
39.999999999999091
 20
-13.93425172568277
 30
0.0
 11
40.0
 21
-14.274089938300669
 31
0.0
  0
LINE
  5
9E
  8
0
 10
40.0
 20
-18.299766489235481
 30
0.0
 11
40.0
 21
-42.699999999999811
 31
0.0
  0
LINE
  5
9F
  8
0
 10
-45.0
 20
-14.274089938300669
 30
0.0
 11
44.999999999999091
 21
-14.274089938300669
 31
0.0
  0
LINE
  5
A0
  8
0
 10
-45.000000000000909
 20
-14.274089938300669
 30
0.0
 11
-45.000000000001819
 21
-16.274089938300669
 31
0.0
  0
LINE
  5
A1
  8
0
 10
44.999999999999091
 20
-14.274089938300669
 30
0.0
 11
44.999999999998167
 21
-16.274089938300669
 31
0.0
  0
LINE
  5
A2
  8
0
 10
-43.876028035110721
 20
-1.5
 30
0.0
 11
0.0
 21
-1.5
 31
0.0
  0
LINE
  5
A3
  8
0
 10
0.0
 20
-13.93425172568277
 30
0.0
 11
-45.599321298888754
 21
-13.93425172568277
 31
0.0
  0
LINE
  5
A4
  8
0
 10
-45.599321298888754
 20
-13.93425172568277
 30
0.0
 11
-43.876028035110721
 21
-1.5
 31
0.0
  0
LINE
  5
A5
  8
0
 10
43.876028035110721
 20
-1.5
 30
0.0
 11
0.0
 21
-1.5
 31
0.0
  0
LINE
  5
A6
  8
0
 10
0.0
 20
-13.93425172568277
 30
0.0
 11
45.599321298888754
 21
-13.93425172568277
 31
0.0
  0
LINE
  5
A7
  8
0
 10
45.599321298888754
 20
-13.93425172568277
 30
0.0
 11
43.876028035110721
 21
-1.5
 31
0.0
  0
LINE
  5
A8
  8
0
 10
-39.999999999999091
 20
0.0
 30
0.0
 11
-40.000000000000909
 21
-1.5
 31
0.0
  0
LINE
  5
A9
  8
0
 10
-40.0
 20
-18.299766489231839
 30
0.0
 11
-40.0
 21
-42.699999999999811
 31
0.0
  0
LINE
  5
AA
  8
0
 10
-40.0
 20
0.0
 30
0.0
 11
40.0
 21
0.0
 31
0.0
  0
ARC
  5
AB
  8
0
 10
42.025676550934797
 20
-18.299766489235481
 30
0.0
 40
2.025676550934576
 50
90.0
 51
180.0
  0
ARC
  5
AC
  8
0
 10
-42.025676550936623
 20
-18.299766489231839
 30
0.0
 40
2.025676550934576
 50
0.0
 51
90.0
  0
LINE
  5
AD
  8
0
 10
-0.999999999998181
 20
-1.5
 30
0.0
 11
-0.9999999999990905
 21
-13.93425172568277
 31
0.0
  0
LINE
  5
AF
  8
0
 10
1.0
 20
-1.5
 30
0.0
 11
1.0
 21
-13.93425172568277
 31
0.0
  0
LINE
  5
B0
  8
0
 10
-11.561255671073919
 20
-1.5
 30
0.0
 11
-11.999999999999091
 21
-13.93425172568277
 31
0.0
  0
LINE
  5
B1
  8
0
 10
11.561255671073919
 20
-1.5
 30
0.0
 11
11.999999999999091
 21
-13.93425172568277
 31
0.0
  0
LINE
  5
B2
  8
0
 10
-32.114314359387208
 20
-1.5
 30
0.0
 11
-32.999999999999091
 21
-13.93425172568277
 31
0.0
  0
LINE
  5
B3
  8
0
 10
-33.739249474383541
 20
-1.5
 30
0.0
 11
-34.624935114995417
 21
-13.93425172568277
 31
0.0
  0
LINE
  5
B4
  8
0
 10
32.114314359387208
 20
-1.5
 30
0.0
 11
32.999999999999091
 21
-13.93425172568277
 31
0.0
  0
LINE
  5
B5
  8
0
 10
33.739249474383541
 20
-1.5
 30
0.0
 11
34.624935114995417
 21
-13.93425172568277
 31
0.0
  0
LINE
  5
B6
  8
0
 10
77.997620433588963
 20
-127.03046657790669
 30
0.0
 11
74.708718626243353
 21
-51.702230670634883
 31
0.0
  0
LINE
  5
B7
  8
0
 10
74.390297098476367
 20
-44.40917865308802
 30
0.0
 11
78.31604196135595
 21
-134.32351859545361
 31
0.0
  0
LINE
  5
B8
  8
0
 10
90.866994646024978
 20
-48.694553927960442
 30
0.0
 11
89.368422313652445
 21
-48.759983009008458
 31
0.0
  0
LINE
  5
B9
  8
0
 10
76.94600524040834
 20
-49.302357451630989
 30
0.0
 11
76.606490478467094
 21
-49.317180986267878
 31
0.0
  0
LINE
  5
BA
  8
0
 10
94.356545635251663
 20
-128.61841165451099
 30
0.0
 11
92.857973302879145
 21
-128.68384073555899
 31
0.0
  0
LINE
  5
BB
  8
0
 10
80.43555622963504
 20
-129.22621517817791
 30
0.0
 11
80.096041467693794
 21
-129.24103871281659
 31
0.0
  0
LINE
  5
BC
  8
0
 10
76.074196468818613
 20
-129.41663625769891
 30
0.0
 11
51.697186573706858
 21
-130.4809594950093
 31
0.0
  0
LINE
  5
BD
  8
0
 10
76.388393541639743
 20
-44.321939878358528
 30
0.0
 11
80.314138404519326
 21
-134.236279820725
 31
0.0
  0
LINE
  5
BE
  8
0
 10
76.388393541639743
 20
-44.321939878357618
 30
0.0
 11
74.390297098476367
 21
-44.40917865308711
 31
0.0
  0
LINE
  5
BF
  8
0
 10
80.314138404519326
 20
-134.236279820725
 30
0.0
 11
78.31604196135595
 21
-134.32351859545449
 31
0.0
  0
LINE
  5
C0
  8
0
 10
89.199352345350235
 20
-44.88764409373016
 30
0.0
 11
91.113197808265795
 21
-88.721911872283272
 31
0.0
  0
LINE
  5
C1
  8
0
 10
78.69078073502169
 20
-89.264286314903984
 30
0.0
 11
76.701766275688897
 21
-43.708365465909992
 31
0.0
  0
LINE
  5
C2
  8
0
 10
76.701766275688897
 20
-43.708365465909992
 30
0.0
 11
89.199352345350235
 21
-44.88764409373016
 31
0.0
  0
LINE
  5
C3
  8
0
 10
93.027043271181356
 20
-132.55617965083641
 30
0.0
 11
91.113197808265795
 21
-88.721911872283272
 31
0.0
  0
LINE
  5
C4
  8
0
 10
78.69078073502169
 20
-89.264286314903984
 30
0.0
 11
80.679795194353574
 21
-134.82020716389891
 31
0.0
  0
LINE
  5
C5
  8
0
 10
80.679795194353574
 20
-134.82020716389891
 30
0.0
 11
93.027043271181356
 21
-132.55617965083641
 31
0.0
  0
LINE
  5
C6
  8
0
 10
90.866994646024978
 20
-48.694553927962261
 30
0.0
 11
89.368422313652445
 21
-48.759983009008458
 31
0.0
  0
LINE
  5
C7
  8
0
 10
72.584645479595565
 20
-49.492778531150179
 30
0.0
 11
48.207635584480158
 21
-50.557101768460591
 31
0.0
  0
LINE
  5
C8
  8
0
 10
90.866994646024978
 20
-48.694553927961351
 30
0.0
 11
94.356545635251663
 21
-128.61841165451
 31
0.0
  0
ARC
  5
C9
  8
0
 10
76.162555238970526
 20
-131.44038481341059
 30
0.0
 40
2.025676550934576
 50
2.500000000018515
 51
92.500000000017948
  0
ARC
  5
CA
  8
0
 10
72.496286709442757
 20
-47.469029975436563
 30
0.0
 40
2.025676550934576
 50
272.50000000001791
 51
2.500000000018515
  0
LINE
  5
CB
  8
0
 10
91.069578420901053
 20
-87.722863650703417
 30
0.0
 11
78.647161347656038
 21
-88.265238093323205
 31
0.0
  0
LINE
  5
CC
  8
0
 10
91.156817195631447
 20
-89.720960093865884
 30
0.0
 11
78.734400122386432
 21
-90.263334536486596
 31
0.0
  0
LINE
  5
CD
  8
0
 10
90.60890291871965
 20
-77.171659954844472
 30
0.0
 11
78.167348086637503
 21
-77.275707655922815
 31
0.0
  0
LINE
  5
CE
  8
0
 10
91.617492697811954
 20
-100.272163789723
 30
0.0
 11
79.214213383405877
 21
-101.25286497388601
 31
0.0
  0
LINE
  5
CF
  8
0
 10
89.712391090251913
 20
-56.638163224217351
 30
0.0
 11
77.251340951965176
 21
-56.295695002703717
 31
0.0
  0
LINE
  5
D0
  8
0
 10
89.641512416026671
 20
-55.014774687394493
 30
0.0
 11
77.180462277740844
 21
-54.672306465880858
 31
0.0
  0
LINE
  5
D1
  8
0
 10
92.514004526279663
 20
-120.8056605203501
 30
0.0
 11
80.130220518077294
 21
-122.2328776271051
 31
0.0
  0
LINE
  5
D2
  8
0
 10
92.584883200504919
 20
-122.4290490571729
 30
0.0
 11
80.201099192301626
 21
-123.856266163928
 31
0.0
  0
VIEWPORT
  5
1C3
 67
     1
  8
0
  6
CONTINUOUS
 10
128.5
 20
97.5
 30
0.0
 40
348.79216438356173
 41
222.18000000000001
 68
     1
 69
     1
1001
ACAD
1000
MVIEW
1002
{
1070
    16
1010
0.0
1020
0.0
1030
0.0
1010
0.0
1020
0.0
1030
1.0
1040
0.0
1040
222.18000000000001
1040
128.5
1040
97.5
1040
50.0
1040
0.0
1040
0.0
1070
     0
1070
  1000
1070
     1
1070
     1
1070
     0
1070
     0
1070
     0
1070
     0
1040
0.0
1040
0.0
1040
0.0
1040
10.0
1040
10.0
1040
10.0
1040
10.0
1070
     0
1002
{
1002
}
1002
}
  0
VIEWPORT
  5
1C7
 67
     1
  8
0
  6
CONTINUOUS
 10
128.5
 20
97.5
 30
0.0
 40
205.59999999999999
 41
156.0
 68
     2
 69
     2
1001
ACAD
1000
MVIEW
1002
{
1070
    16
1010
30714.317967474461
1020
7339.7553224022467
1030
0.0
1010
-38962.971254248441
1020
-38962.97125424847
1030
38962.97125424847
1040
0.0000000000000005
1040
181.09167242466319
1040
-16442.271981810842
1040
-15565.28039769932
1040
50.0
1040
0.0
1040
0.0
1070
     0
1070
  1000
1070
     1
1070
     3
1070
     0
1070
     0
1070
     0
1070
     0
1040
0.0
1040
0.0
1040
0.0
1040
10.0
1040
10.0
1040
10.0
1040
10.0
1070
     0
1002
{
1002
}
1002
}
  0
ENDSEC
  0
EOF
