  0
SECTION
  2
HEADER
  9
$ACADVER
  1
AC1009
  9
$INSBASE
 10
0.0
 20
0.0
 30
0.0
  9
$EXTMIN
 10
-32.799321298887662
 20
-97.800000000000182
 30
0.0
  9
$EXTMAX
 10
32.799321298888572
 20
0.0
 30
0.0
  9
$LIMMIN
 10
0.0
 20
0.0
  9
$LIMMAX
 10
420.0
 20
297.0
  9
$ORTHOMODE
 70
     0
  9
$REGENMODE
 70
     1
  9
$FILLMODE
 70
     1
  9
$QTEXTMODE
 70
     0
  9
$MIRRTEXT
 70
     0
  9
$DRAGMODE
 70
     2
  9
$LTSCALE
 40
1.0
  9
$OSMODE
 70
   127
  9
$ATTMODE
 70
     1
  9
$TEXTSIZE
 40
2.5
  9
$TRACEWID
 40
1.0
  9
$TEXTSTYLE
  7
STANDARD
  9
$CLAYER
  8
0
  9
$CELTYPE
  6
CONTINUOUS
  9
$CECOLOR
 62
   256
  9
$DIMSCALE
 40
1.0
  9
$DIMASZ
 40
2.5
  9
$DIMEXO
 40
0.625
  9
$DIMDLI
 40
3.75
  9
$DIMRND
 40
0.0
  9
$DIMDLE
 40
0.0
  9
$DIMEXE
 40
1.25
  9
$DIMTP
 40
0.0
  9
$DIMTM
 40
0.0
  9
$DIMTXT
 40
2.5
  9
$DIMCEN
 40
2.5
  9
$DIMTSZ
 40
0.0
  9
$DIMTOL
 70
     0
  9
$DIMLIM
 70
     0
  9
$DIMTIH
 70
     0
  9
$DIMTOH
 70
     0
  9
$DIMSE1
 70
     0
  9
$DIMSE2
 70
     0
  9
$DIMTAD
 70
     1
  9
$DIMZIN
 70
     8
  9
$DIMBLK
  1

  9
$DIMASO
 70
     1
  9
$DIMSHO
 70
     1
  9
$DIMPOST
  1

  9
$DIMAPOST
  1

  9
$DIMALT
 70
     0
  9
$DIMALTD
 70
     3
  9
$DIMALTF
 40
0.03937007874016
  9
$DIMLFAC
 40
1.0
  9
$DIMTOFL
 70
     1
  9
$DIMTVP
 40
0.0
  9
$DIMTIX
 70
     0
  9
$DIMSOXD
 70
     0
  9
$DIMSAH
 70
     0
  9
$DIMBLK1
  1

  9
$DIMBLK2
  1

  9
$DIMSTYLE
  2
STANDARD
  9
$DIMCLRD
 70
     0
  9
$DIMCLRE
 70
     0
  9
$DIMCLRT
 70
     0
  9
$DIMTFAC
 40
1.0
  9
$DIMGAP
 40
0.625
  9
$LUNITS
 70
     2
  9
$LUPREC
 70
     4
  9
$SKETCHINC
 40
1.0
  9
$FILLETRAD
 40
3.0
  9
$AUNITS
 70
     0
  9
$AUPREC
 70
     0
  9
$MENU
  1
.
  9
$ELEVATION
 40
0.0
  9
$PELEVATION
 40
0.0
  9
$THICKNESS
 40
0.0
  9
$LIMCHECK
 70
     0
  9
$BLIPMODE
 70
     0
  9
$CHAMFERA
 40
0.0
  9
$CHAMFERB
 40
0.0
  9
$SKPOLY
 70
     0
  9
$TDCREATE
 40
2455559.2317578131
  9
$TDUPDATE
 40
2457377.7199052442
  9
$TDINDWG
 40
2.9209396990999998
  9
$TDUSRTIMER
 40
2.9209357175999999
  9
$USRTIMER
 70
     1
  9
$ANGBASE
 50
0.0
  9
$ANGDIR
 70
     0
  9
$PDMODE
 70
     0
  9
$PDSIZE
 40
0.0
  9
$PLINEWID
 40
0.0
  9
$COORDS
 70
     2
  9
$SPLFRAME
 70
     0
  9
$SPLINETYPE
 70
     6
  9
$SPLINESEGS
 70
     8
  9
$ATTDIA
 70
     1
  9
$ATTREQ
 70
     1
  9
$HANDLING
 70
     1
  9
$HANDSEED
  5
28B
  9
$SURFTAB1
 70
     6
  9
$SURFTAB2
 70
     6
  9
$SURFTYPE
 70
     6
  9
$SURFU
 70
     6
  9
$SURFV
 70
     6
  9
$UCSNAME
  2

  9
$UCSORG
 10
0.0
 20
0.0
 30
0.0
  9
$UCSXDIR
 10
1.0
 20
0.0
 30
0.0
  9
$UCSYDIR
 10
0.0
 20
1.0
 30
0.0
  9
$PUCSNAME
  2

  9
$PUCSORG
 10
0.0
 20
0.0
 30
0.0
  9
$PUCSXDIR
 10
1.0
 20
0.0
 30
0.0
  9
$PUCSYDIR
 10
0.0
 20
1.0
 30
0.0
  9
$USERI1
 70
     0
  9
$USERI2
 70
     0
  9
$USERI3
 70
     0
  9
$USERI4
 70
     0
  9
$USERI5
 70
     0
  9
$USERR1
 40
0.0
  9
$USERR2
 40
0.0
  9
$USERR3
 40
0.0
  9
$USERR4
 40
0.0
  9
$USERR5
 40
0.0
  9
$WORLDVIEW
 70
     1
  9
$SHADEDGE
 70
     3
  9
$SHADEDIF
 70
    70
  9
$TILEMODE
 70
     1
  9
$MAXACTVP
 70
    64
  9
$PLIMCHECK
 70
     0
  9
$PEXTMIN
 10
25.699999999999989
 20
19.5
 30
0.0
  9
$PEXTMAX
 10
231.30000000000001
 20
175.5
 30
0.0
  9
$PLIMMIN
 10
-20.0
 20
-7.5
  9
$PLIMMAX
 10
277.0
 20
202.5
  9
$UNITMODE
 70
     0
  9
$VISRETAIN
 70
     1
  9
$PLINEGEN
 70
     0
  9
$PSLTSCALE
 70
     1
  0
ENDSEC
  0
SECTION
  2
TABLES
  0
TABLE
  2
VPORT
 70
     1
  0
VPORT
  2
*ACTIVE
 70
     0
 10
0.0
 20
0.0
 11
1.0
 21
1.0
 12
16458.127776663969
 22
5824.9361560382022
 13
0.0
 23
0.0
 14
10.0
 24
10.0
 15
10.0
 25
10.0
 16
-38962.971254248441
 26
-38962.97125424847
 36
38962.97125424847
 17
30714.317967474461
 27
7339.7553224022467
 37
0.0
 40
45085.451174768772
 41
1.56986301369863
 42
50.0
 43
0.0
 44
0.0
 50
0.0
 51
0.0000000000000313
 71
     0
 72
  1000
 73
     1
 74
     3
 75
     0
 76
     0
 77
     0
 78
     0
  0
ENDTAB
  0
TABLE
  2
LTYPE
 70
     3
  0
LTYPE
  2
CONTINUOUS
 70
     0
  3
Solid line
 72
    65
 73
     0
 40
0.0
  0
ENDTAB
  0
TABLE
  2
LAYER
 70
     9
  0
LAYER
  2
0
 70
     0
 62
     7
  6
CONTINUOUS
  0
ENDTAB
  0
TABLE
  2
STYLE
 70
     4
  0
STYLE
  2
STANDARD
 70
     0
 40
0.0
 41
1.0
 50
0.0
 71
     0
 42
2.5
  3
txt
  4

  0
STYLE
  2
INSCRIPTIONS
 70
     0
 40
0.0
 41
0.9
 50
0.0
 71
     0
 42
2.5
  3
txt
  4

  0
ENDTAB
  0
TABLE
  2
VIEW
 70
     1
  0
ENDTAB
  0
TABLE
  2
UCS
 70
     0
  0
ENDTAB
  0
TABLE
  2
APPID
 70
     7
  0
APPID
  2
ACAD
 70
     0
  0
APPID
  2
ACAD_PSEXT
 70
     0
  0
APPID
  2
ACAECLAYERSTANDARD
 70
     0
  0
APPID
  2
ACAD_NAV_VCDISPLAY
 70
     0
  0
APPID
  2
REVIT
 70
     0
  0
APPID
  2
ACAD_EXEMPT_FROM_CAD_STANDARDS
 70
     0
  0
APPID
  2
ACAD_MLEADERVER
 70
     0
  0
ENDTAB
  0
TABLE
  2
DIMSTYLE
 70
     1
  0
DIMSTYLE
  2
STANDARD
 70
     0
  3

  4

  5

  6

  7

 40
1.0
 41
0.18
 42
0.0625
 43
0.38
 44
0.18
 45
0.0
 46
0.0
 47
0.0
 48
0.0
140
0.18
141
0.09
142
0.0
143
25.399999999999999
144
1.0
145
0.0
146
1.0
147
0.09
 71
     0
 72
     0
 73
     1
 74
     1
 75
     0
 76
     0
 77
     0
 78
     0
170
     0
171
     2
172
     0
173
     0
174
     0
175
     0
176
     0
177
     0
178
     0
  0
ENDTAB
  0
ENDSEC
  0
SECTION
  2
BLOCKS
  0
BLOCK
  8
0
  2
$MODEL_SPACE
 70
     0
 10
0.0
 20
0.0
 30
0.0
  3
$MODEL_SPACE
  1

  0
ENDBLK
  5
D
  8
0
  0
BLOCK
 67
     1
  8
0
  2
$PAPER_SPACE
 70
     0
 10
0.0
 20
0.0
 30
0.0
  3
$PAPER_SPACE
  1

  0
ENDBLK
  5
197
 67
     1
  8
0
  0
BLOCK
  8
0
  2
*U2
 70
     1
 10
0.0
 20
0.0
 30
0.0
  3
*U2
  1

  0
TEXT
  5
22D
  8
0
  6
CONTINUOUS
 10
-15.616547074680961
 20
-32.995602240040533
 30
0.0
 40
14.9688
  1
50
 41
0.8
  7
INSCRIPTIONS
  0
ENDBLK
  5
22F
  8
0
  0
BLOCK
  8
0
  2
*U3
 70
     1
 10
0.0
 20
0.0
 30
0.0
  3
*U3
  1

  0
TEXT
  5
240
  8
0
  6
CONTINUOUS
 10
2.9983511961527252
 20
-29.218881067245089
 30
0.0
 40
6.5
  1
PP-MD
 41
0.5
  7
INSCRIPTIONS
  0
ENDBLK
  5
242
  8
0
  0
ENDSEC
  0
SECTION
  2
ENTITIES
  0
LINE
  5
4B
  8
0
 10
-32.199999999998909
 20
-15.474089938300491
 30
0.0
 11
32.199999999997999
 21
-15.474089938300491
 31
0.0
  0
LINE
  5
4E
  8
0
 10
-27.199999999998909
 20
0.0
 30
0.0
 11
-27.199999999998909
 21
-1.5
 31
0.0
  0
LINE
  5
4F
  8
0
 10
-27.19999999999709
 20
-13.13425172568259
 30
0.0
 11
-27.199999999997999
 21
-13.4740899383014
 31
0.0
  0
LINE
  5
50
  8
0
 10
27.200000000000731
 20
0.0
 30
0.0
 11
27.200000000000731
 21
-1.5
 31
0.0
  0
LINE
  5
51
  8
0
 10
27.199999999999822
 20
-13.13425172568259
 30
0.0
 11
27.199999999999822
 21
-13.4740899383014
 31
0.0
  0
LINE
  5
52
  8
0
 10
-32.199999999997999
 20
-13.474089938300491
 30
0.0
 11
32.199999999998909
 21
-13.4740899383014
 31
0.0
  0
LINE
  5
53
  8
0
 10
-32.199999999998909
 20
-13.4740899383014
 30
0.0
 11
-32.199999999999818
 21
-15.4740899383014
 31
0.0
  0
LINE
  5
54
  8
0
 10
32.199999999998909
 20
-13.4740899383014
 30
0.0
 11
32.199999999997999
 21
-15.474089938300491
 31
0.0
  0
LINE
  5
55
  8
0
 10
-31.07602803510963
 20
-1.5
 30
0.0
 11
0.0
 21
-1.5
 31
0.0
  0
LINE
  5
56
  8
0
 10
0.0
 20
-13.13425172568259
 30
0.0
 11
-32.799321298887662
 21
-13.13425172568259
 31
0.0
  0
LINE
  5
57
  8
0
 10
-32.799321298887662
 20
-13.13425172568259
 30
0.0
 11
-31.07602803510963
 21
-1.5
 31
0.0
  0
LINE
  5
58
  8
0
 10
31.076028035110539
 20
-1.5
 30
0.0
 11
0.0
 21
-1.5
 31
0.0
  0
LINE
  5
59
  8
0
 10
0.0
 20
-13.13425172568259
 30
0.0
 11
32.799321298888572
 21
-13.13425172568259
 31
0.0
  0
LINE
  5
5A
  8
0
 10
32.799321298888572
 20
-13.13425172568259
 30
0.0
 11
31.076028035110539
 21
-1.5
 31
0.0
  0
LINE
  5
5B
  8
0
 10
-27.19999999999709
 20
0.0
 30
0.0
 11
-27.199999999998909
 21
-1.5
 31
0.0
  0
LINE
  5
5C
  8
0
 10
-27.199999999997999
 20
0.0
 30
0.0
 11
27.199999999999822
 21
0.0
 31
0.0
  0
ARC
  5
5D
  8
0
 10
29.225676550934619
 20
-17.499766489235299
 30
0.0
 40
2.025676550934576
 50
90.0
 51
180.0
  0
ARC
  5
5E
  8
0
 10
-29.225676550934619
 20
-17.499766489231661
 30
0.0
 40
2.025676550934576
 50
0.0
 51
90.0
  0
LINE
  5
5F
  8
0
 10
-0.9999999999972715
 20
-1.5
 30
0.0
 11
-0.9999999999990905
 21
-13.13425172568259
 31
0.0
  0
LINE
  5
61
  8
0
 10
1.0
 20
-1.5
 30
0.0
 11
1.0
 21
-13.13425172568259
 31
0.0
  0
LINE
  5
62
  8
0
 10
-11.561255671073919
 20
-1.5
 30
0.0
 11
-11.999999999999091
 21
-13.13425172568259
 31
0.0
  0
LINE
  5
63
  8
0
 10
11.561255671073919
 20
-1.5
 30
0.0
 11
11.999999999999091
 21
-13.13425172568259
 31
0.0
  0
LINE
  5
64
  8
0
 10
23.84377525172113
 20
-1.5
 30
0.0
 11
24.729460892333009
 21
-13.13425172568259
 31
0.0
  0
LINE
  5
65
  8
0
 10
25.46871036671746
 20
-1.5
 30
0.0
 11
26.354396007328429
 21
-13.13425172568259
 31
0.0
  0
LINE
  5
66
  8
0
 10
-23.843775251719311
 20
-1.5
 30
0.0
 11
-24.729460892332099
 21
-13.13425172568259
 31
0.0
  0
LINE
  5
67
  8
0
 10
-25.46871036671655
 20
-1.5
 30
0.0
 11
-26.354396007328429
 21
-13.13425172568259
 31
0.0
  0
LINE
  5
68
  8
0
 10
0.0
 20
0.0
 30
0.0
 11
0.0
 21
-97.800000000000182
 31
0.0
  0
LINE
  5
6B
  8
0
 10
-27.199999999999822
 20
-17.499766489231661
 30
0.0
 11
-27.199999999999822
 21
-37.800000000001091
 31
0.0
  0
LINE
  5
6C
  8
0
 10
27.199999999999822
 20
-17.499766489235299
 30
0.0
 11
27.199999999999822
 21
-37.800000000000182
 31
0.0
  0
LINE
  5
6D
  8
0
 10
-27.199999999999822
 20
-37.800000000001091
 30
0.0
 11
-25.706882839513131
 21
-48.500000000001819
 31
0.0
  0
LINE
  5
6E
  8
0
 10
27.199999999999822
 20
-37.800000000000182
 30
0.0
 11
25.70688283951495
 21
-48.499999999997272
 31
0.0
  0
INSERT
  5
6F
  8
0
  6
CONTINUOUS
  2
*U2
 10
0.0
 20
0.0
 30
0.0
  0
POLYLINE
  5
72
  8
0
 66
     1
 10
0.0
 20
0.0
 30
0.0
 70
     1
  0
VERTEX
  5
230
  8
0
 10
-16.337208419650779
 20
-17.99228293976466
 30
0.0
  0
VERTEX
  5
231
  8
0
 10
-23.49436905625771
 20
-17.99228293976466
 30
0.0
  0
VERTEX
  5
232
  8
0
 10
-23.49436905625771
 20
-20.349357674207571
 30
0.0
  0
VERTEX
  5
233
  8
0
 10
-16.337208419649869
 20
-20.349357674207571
 30
0.0
  0
SEQEND
  5
234
  8
0
  0
POLYLINE
  5
73
  8
0
 66
     1
 10
0.0
 20
0.0
 30
0.0
 70
     1
  0
VERTEX
  5
235
  8
0
 10
-15.731458166369521
 20
-34.592957442881932
 30
0.0
  0
VERTEX
  5
236
  8
0
 10
-19.990120783581911
 20
-34.592957442881023
 30
0.0
  0
VERTEX
  5
237
  8
0
 10
-19.990120783581911
 20
-33.451749902481431
 30
0.0
  0
VERTEX
  5
238
  8
0
 10
-15.731458166369521
 20
-33.451749902481431
 30
0.0
  0
SEQEND
  5
239
  8
0
  0
LINE
  5
74
  8
0
 10
-16.08137717551471
 20
-27.444463836049181
 30
0.0
 11
-21.80573047765392
 21
-27.444463836049181
 31
0.0
  0
POLYLINE
  5
75
  8
0
 66
     1
 10
0.0
 20
0.0
 30
0.0
 70
     1
  0
VERTEX
  5
23A
  8
0
 10
-16.08137717551471
 20
-27.444463836049181
 30
0.0
  0
VERTEX
  5
23B
  8
0
 10
-22.237864936952061
 20
-27.444463836049181
 30
0.0
  0
VERTEX
  5
23C
  8
0
 10
-22.237864936952061
 20
-25.8829935030999
 30
0.0
  0
VERTEX
  5
23D
  8
0
 10
-16.08137717551471
 20
-25.882993503098991
 30
0.0
  0
SEQEND
  5
23E
  8
0
  0
ARC
  5
76
  8
0
 10
0.0000000000009095
 20
-41.833451984036401
 30
0.0
 40
18.93621704554436
 50
239.34608426254911
 51
300.65391573745092
  0
ARC
  5
77
  8
0
 10
0.0000000000009095
 20
-41.833451984036401
 30
0.0
 40
20.93621704554343
 50
239.34608426254911
 51
300.65391573745092
  0
ARC
  5
78
  8
0
 10
5.638556681242334
 20
-53.121302788664252
 30
0.0
 40
6.4149605864410049
 50
308.75940353593768
 51
357.38539004675971
  0
ARC
  5
79
  8
0
 10
5.6790692318108986
 20
-53.122905956129209
 30
0.0
 40
8.3742036143868184
 50
306.62025786450971
 51
357.15402566492457
  0
ARC
  5
7A
  8
0
 10
-5.638556681244153
 20
-53.121302788662433
 30
0.0
 40
6.4149605864405981
 50
182.61460995318819
 51
231.2405964640663
  0
ARC
  5
7B
  8
0
 10
-5.679069231811809
 20
-53.122905956130133
 30
0.0
 40
8.374203614385463
 50
182.8459743350233
 51
233.37974213549029
  0
LINE
  5
7C
  8
0
 10
-12.04683910206313
 20
-53.413938638479522
 30
0.0
 11
-12.4796691707952
 21
-40.690345251942738
 31
0.0
  0
LINE
  5
7D
  8
0
 10
-14.04294425902753
 20
-53.538695210789228
 30
0.0
 11
-14.628799547169359
 21
-36.417585626327309
 31
0.0
  0
LINE
  5
7E
  8
0
 10
12.04683910206313
 20
-53.413938638480431
 30
0.0
 11
12.4796691707952
 21
-40.690345251942738
 31
0.0
  0
LINE
  5
7F
  8
0
 10
14.04294425902753
 20
-53.53869521079104
 30
0.0
 11
14.628799547169359
 21
-36.417585626327309
 31
0.0
  0
LINE
  5
80
  8
0
 10
-14.628799547169359
 20
-36.417585626327309
 30
0.0
 11
14.628799547169359
 21
-36.417585626327309
 31
0.0
  0
INSERT
  5
81
  8
0
  6
CONTINUOUS
  2
*U3
 10
0.0
 20
0.0
 30
0.0
  0
POLYLINE
  5
82
  8
0
 66
     1
 10
0.0
 20
0.0
 30
0.0
 70
     1
  0
VERTEX
  5
243
  8
0
 10
16.337208419650779
 20
-17.99228293976466
 30
0.0
  0
VERTEX
  5
244
  8
0
 10
23.49436905625771
 20
-17.99228293976466
 30
0.0
  0
VERTEX
  5
245
  8
0
 10
23.49436905625771
 20
-20.349357674207571
 30
0.0
  0
VERTEX
  5
246
  8
0
 10
16.337208419650779
 20
-20.349357674207571
 30
0.0
  0
SEQEND
  5
247
  8
0
  0
POLYLINE
  5
83
  8
0
 66
     1
 10
0.0
 20
0.0
 30
0.0
 70
     1
  0
VERTEX
  5
248
  8
0
 10
15.731458166369521
 20
-34.592957442881932
 30
0.0
  0
VERTEX
  5
249
  8
0
 10
19.990120783581911
 20
-34.592957442881023
 30
0.0
  0
VERTEX
  5
24A
  8
0
 10
19.990120783581911
 20
-33.451749902481431
 30
0.0
  0
VERTEX
  5
24B
  8
0
 10
15.731458166369521
 20
-33.451749902481431
 30
0.0
  0
SEQEND
  5
24C
  8
0
  0
LINE
  5
84
  8
0
 10
16.08137717551471
 20
-27.444463836049181
 30
0.0
 11
21.80573047765392
 21
-27.444463836049181
 31
0.0
  0
POLYLINE
  5
85
  8
0
 66
     1
 10
0.0
 20
0.0
 30
0.0
 70
     1
  0
VERTEX
  5
24D
  8
0
 10
16.08137717551471
 20
-27.444463836049181
 30
0.0
  0
VERTEX
  5
24E
  8
0
 10
22.237864936952061
 20
-27.444463836049181
 30
0.0
  0
VERTEX
  5
24F
  8
0
 10
22.237864936952061
 20
-25.8829935030999
 30
0.0
  0
VERTEX
  5
250
  8
0
 10
16.08137717551471
 20
-25.882993503098991
 30
0.0
  0
SEQEND
  5
251
  8
0
  0
LINE
  5
86
  8
0
 10
-25.706882839514041
 20
-48.500000000001819
 30
0.0
 11
-14.408533063879069
 21
-48.500000000001819
 31
0.0
  0
LINE
  5
87
  8
0
 10
14.408533063878171
 20
-48.499999999999091
 30
0.0
 11
25.70688283951495
 21
-48.499999999998181
 31
0.0
  0
LINE
  5
88
  8
0
 10
-27.199999999997999
 20
-37.800000000000182
 30
0.0
 11
-14.581525290830539
 21
-37.800000000000182
 31
0.0
  0
LINE
  5
89
  8
0
 10
14.581525290830539
 20
-37.800000000000182
 30
0.0
 11
27.199999999999822
 21
-37.800000000000182
 31
0.0
  0
LINE
  5
8A
  8
0
 10
-12.4796691707952
 20
-40.690345251942738
 30
0.0
 11
12.4796691707952
 21
-40.690345251942738
 31
0.0
  0
LINE
  5
8B
  8
0
 10
-27.199999999997999
 20
-59.200000000003463
 30
0.0
 11
-25.706882839513131
 21
-48.500000000002728
 31
0.0
  0
LINE
  5
8C
  8
0
 10
27.200000000001641
 20
-59.199999999995271
 30
0.0
 11
25.70688283951495
 21
-48.499999999998181
 31
0.0
  0
LINE
  5
8D
  8
0
 10
-27.19999999999618
 20
-59.200000000005268
 30
0.0
 11
-11.58444568825052
 21
-59.200000000002539
 31
0.0
  0
LINE
  5
8E
  8
0
 10
11.58444568825689
 20
-59.199999999997999
 30
0.0
 11
27.200000000001641
 21
-59.199999999995271
 31
0.0
  0
LINE
  5
8F
  8
0
 10
-32.199999999998909
 20
-81.525910061703144
 30
0.0
 11
32.199999999997999
 21
-81.525910061703144
 31
0.0
  0
LINE
  5
90
  8
0
 10
-27.199999999998909
 20
-97.000000000003652
 30
0.0
 11
-27.199999999998909
 21
-95.500000000003638
 31
0.0
  0
LINE
  5
91
  8
0
 10
-27.19999999999709
 20
-83.865748274321035
 30
0.0
 11
-27.199999999997999
 21
-83.525910061702234
 31
0.0
  0
LINE
  5
92
  8
0
 10
27.200000000000731
 20
-97.000000000003652
 30
0.0
 11
27.200000000000731
 21
-95.500000000003638
 31
0.0
  0
LINE
  5
93
  8
0
 10
27.199999999999822
 20
-83.865748274321035
 30
0.0
 11
27.199999999999822
 21
-83.525910061702234
 31
0.0
  0
LINE
  5
94
  8
0
 10
-32.199999999997999
 20
-83.525910061703144
 30
0.0
 11
32.199999999998909
 21
-83.525910061702234
 31
0.0
  0
LINE
  5
95
  8
0
 10
-32.199999999998909
 20
-83.525910061702234
 30
0.0
 11
-32.199999999999818
 21
-81.525910061702234
 31
0.0
  0
LINE
  5
96
  8
0
 10
32.199999999998909
 20
-83.525910061702234
 30
0.0
 11
32.199999999997999
 21
-81.525910061703144
 31
0.0
  0
LINE
  5
97
  8
0
 10
-31.07602803510963
 20
-95.500000000003638
 30
0.0
 11
0.0
 21
-95.500000000003638
 31
0.0
  0
LINE
  5
98
  8
0
 10
0.0
 20
-83.865748274321035
 30
0.0
 11
-32.799321298887662
 21
-83.865748274321035
 31
0.0
  0
LINE
  5
99
  8
0
 10
-32.799321298887662
 20
-83.865748274321035
 30
0.0
 11
-31.07602803510963
 21
-95.500000000003638
 31
0.0
  0
LINE
  5
9A
  8
0
 10
31.076028035110539
 20
-95.500000000003638
 30
0.0
 11
0.0
 21
-95.500000000003638
 31
0.0
  0
LINE
  5
9B
  8
0
 10
0.0
 20
-83.865748274321035
 30
0.0
 11
32.799321298888572
 21
-83.865748274321035
 31
0.0
  0
LINE
  5
9C
  8
0
 10
32.799321298888572
 20
-83.865748274321035
 30
0.0
 11
31.076028035110539
 21
-95.500000000003638
 31
0.0
  0
LINE
  5
9D
  8
0
 10
-27.19999999999709
 20
-97.000000000003652
 30
0.0
 11
-27.199999999998909
 21
-95.500000000003638
 31
0.0
  0
LINE
  5
9E
  8
0
 10
-27.199999999997999
 20
-97.000000000003652
 30
0.0
 11
27.199999999999822
 21
-97.000000000003652
 31
0.0
  0
ARC
  5
9F
  8
0
 10
29.225676550934619
 20
-79.500233510768339
 30
0.0
 40
2.025676550934576
 50
180.0
 51
270.0
  0
ARC
  5
A0
  8
0
 10
-29.225676550934619
 20
-79.500233510771977
 30
0.0
 40
2.025676550934576
 50
270.0
 51
0.0
  0
LINE
  5
A1
  8
0
 10
-0.9999999999972715
 20
-95.500000000003638
 30
0.0
 11
-0.9999999999990905
 21
-83.865748274321035
 31
0.0
  0
LINE
  5
A2
  8
0
 10
1.0
 20
-95.500000000003638
 30
0.0
 11
1.0
 21
-83.865748274321035
 31
0.0
  0
LINE
  5
A3
  8
0
 10
-11.561255671073919
 20
-95.500000000003638
 30
0.0
 11
-11.999999999999091
 21
-83.865748274321035
 31
0.0
  0
LINE
  5
A4
  8
0
 10
11.561255671073919
 20
-95.500000000003638
 30
0.0
 11
11.999999999999091
 21
-83.865748274321035
 31
0.0
  0
LINE
  5
A5
  8
0
 10
23.84377525172113
 20
-95.500000000003638
 30
0.0
 11
24.729460892333009
 21
-83.865748274321035
 31
0.0
  0
LINE
  5
A6
  8
0
 10
25.46871036671746
 20
-95.500000000003638
 30
0.0
 11
26.354396007328429
 21
-83.865748274321035
 31
0.0
  0
LINE
  5
A7
  8
0
 10
-23.843775251719311
 20
-95.500000000003638
 30
0.0
 11
-24.729460892332099
 21
-83.865748274321035
 31
0.0
  0
LINE
  5
A8
  8
0
 10
-25.46871036671655
 20
-95.500000000003638
 30
0.0
 11
-26.354396007328429
 21
-83.865748274321035
 31
0.0
  0
LINE
  5
A9
  8
0
 10
-27.199999999999822
 20
-79.500233510771977
 30
0.0
 11
-27.199999999999822
 21
-59.200000000002539
 31
0.0
  0
LINE
  5
AA
  8
0
 10
27.199999999999822
 20
-79.500233510768339
 30
0.0
 11
27.199999999999822
 21
-59.200000000003463
 31
0.0
  0
VIEWPORT
  5
19B
 67
     1
  8
0
  6
CONTINUOUS
 10
128.5
 20
97.5
 30
0.0
 40
348.79216438356173
 41
222.18000000000001
 68
     1
 69
     1
1001
ACAD
1000
MVIEW
1002
{
1070
    16
1010
0.0
1020
0.0
1030
0.0
1010
0.0
1020
0.0
1030
1.0
1040
0.0
1040
222.18000000000001
1040
128.5
1040
97.5
1040
50.0
1040
0.0
1040
0.0
1070
     0
1070
  1000
1070
     1
1070
     1
1070
     0
1070
     0
1070
     0
1070
     0
1040
0.0
1040
0.0
1040
0.0
1040
10.0
1040
10.0
1040
10.0
1040
10.0
1070
     0
1002
{
1002
}
1002
}
  0
VIEWPORT
  5
19F
 67
     1
  8
0
  6
CONTINUOUS
 10
128.5
 20
97.5
 30
0.0
 40
205.59999999999999
 41
156.0
 68
     2
 69
     2
1001
ACAD
1000
MVIEW
1002
{
1070
    16
1010
30714.317967474461
1020
7339.7553224022467
1030
0.0
1010
-38962.971254248441
1020
-38962.97125424847
1030
38962.97125424847
1040
0.0000000000000005
1040
88.446015701695629
1040
-16493.734232000301
1040
-15555.473707182409
1040
50.0
1040
0.0
1040
0.0
1070
     0
1070
  1000
1070
     1
1070
     3
1070
     0
1070
     0
1070
     0
1070
     0
1040
0.0
1040
0.0
1040
0.0
1040
10.0
1040
10.0
1040
10.0
1040
10.0
1070
     0
1002
{
1002
}
1002
}
  0
ENDSEC
  0
EOF
