  0
SECTION
  2
HEADER
  9
$ACADVER
  1
AC1009
  9
$INSBASE
 10
0.0
 20
0.0
 30
0.0
  9
$EXTMIN
 10
-139.17039317136499
 20
-125.79901739662741
 30
0.0
  9
$EXTMAX
 10
139.17039317136499
 20
120.2880003596611
 30
0.0
  9
$LIMMIN
 10
0.0
 20
0.0
  9
$LIMMAX
 10
420.0
 20
297.0
  9
$ORTHOMODE
 70
     0
  9
$REGENMODE
 70
     1
  9
$FILLMODE
 70
     1
  9
$QTEXTMODE
 70
     0
  9
$MIRRTEXT
 70
     0
  9
$DRAGMODE
 70
     2
  9
$LTSCALE
 40
1.0
  9
$OSMODE
 70
   127
  9
$ATTMODE
 70
     1
  9
$TEXTSIZE
 40
2.5
  9
$TRACEWID
 40
1.0
  9
$TEXTSTYLE
  7
STANDARD
  9
$CLAYER
  8
0
  9
$CELTYPE
  6
CONTINUOUS
  9
$CECOLOR
 62
   256
  9
$DIMSCALE
 40
2.0
  9
$DIMASZ
 40
2.5
  9
$DIMEXO
 40
0.625
  9
$DIMDLI
 40
3.75
  9
$DIMRND
 40
0.0
  9
$DIMDLE
 40
0.0
  9
$DIMEXE
 40
1.25
  9
$DIMTP
 40
0.0
  9
$DIMTM
 40
0.0
  9
$DIMTXT
 40
2.5
  9
$DIMCEN
 40
2.5
  9
$DIMTSZ
 40
0.0
  9
$DIMTOL
 70
     0
  9
$DIMLIM
 70
     0
  9
$DIMTIH
 70
     0
  9
$DIMTOH
 70
     0
  9
$DIMSE1
 70
     0
  9
$DIMSE2
 70
     0
  9
$DIMTAD
 70
     1
  9
$DIMZIN
 70
     8
  9
$DIMBLK
  1

  9
$DIMASO
 70
     1
  9
$DIMSHO
 70
     1
  9
$DIMPOST
  1

  9
$DIMAPOST
  1

  9
$DIMALT
 70
     0
  9
$DIMALTD
 70
     3
  9
$DIMALTF
 40
0.03937007874016
  9
$DIMLFAC
 40
1.0
  9
$DIMTOFL
 70
     1
  9
$DIMTVP
 40
0.0
  9
$DIMTIX
 70
     0
  9
$DIMSOXD
 70
     0
  9
$DIMSAH
 70
     0
  9
$DIMBLK1
  1

  9
$DIMBLK2
  1

  9
$DIMSTYLE
  2
STANDARD
  9
$DIMCLRD
 70
     0
  9
$DIMCLRE
 70
     0
  9
$DIMCLRT
 70
     0
  9
$DIMTFAC
 40
1.0
  9
$DIMGAP
 40
0.625
  9
$LUNITS
 70
     2
  9
$LUPREC
 70
     4
  9
$SKETCHINC
 40
1.0
  9
$FILLETRAD
 40
3.0
  9
$AUNITS
 70
     0
  9
$AUPREC
 70
     0
  9
$MENU
  1
.
  9
$ELEVATION
 40
0.0
  9
$PELEVATION
 40
0.0
  9
$THICKNESS
 40
0.0
  9
$LIMCHECK
 70
     0
  9
$BLIPMODE
 70
     0
  9
$CHAMFERA
 40
0.0
  9
$CHAMFERB
 40
0.0
  9
$SKPOLY
 70
     0
  9
$TDCREATE
 40
2455559.2317578131
  9
$TDUPDATE
 40
2457413.6798392008
  9
$TDINDWG
 40
2.9401005787000001
  9
$TDUSRTIMER
 40
2.9400965972000002
  9
$USRTIMER
 70
     1
  9
$ANGBASE
 50
0.0
  9
$ANGDIR
 70
     0
  9
$PDMODE
 70
     0
  9
$PDSIZE
 40
0.0
  9
$PLINEWID
 40
0.0
  9
$COORDS
 70
     2
  9
$SPLFRAME
 70
     0
  9
$SPLINETYPE
 70
     6
  9
$SPLINESEGS
 70
     8
  9
$ATTDIA
 70
     0
  9
$ATTREQ
 70
     0
  9
$HANDLING
 70
     1
  9
$HANDSEED
  5
638
  9
$SURFTAB1
 70
     6
  9
$SURFTAB2
 70
     6
  9
$SURFTYPE
 70
     6
  9
$SURFU
 70
     6
  9
$SURFV
 70
     6
  9
$UCSNAME
  2

  9
$UCSORG
 10
0.0
 20
0.0
 30
0.0
  9
$UCSXDIR
 10
1.0
 20
0.0
 30
0.0
  9
$UCSYDIR
 10
0.0
 20
1.0
 30
0.0
  9
$PUCSNAME
  2

  9
$PUCSORG
 10
0.0
 20
0.0
 30
0.0
  9
$PUCSXDIR
 10
1.0
 20
0.0
 30
0.0
  9
$PUCSYDIR
 10
0.0
 20
1.0
 30
0.0
  9
$USERI1
 70
     0
  9
$USERI2
 70
     0
  9
$USERI3
 70
     0
  9
$USERI4
 70
     0
  9
$USERI5
 70
     0
  9
$USERR1
 40
0.0
  9
$USERR2
 40
0.0
  9
$USERR3
 40
0.0
  9
$USERR4
 40
0.0
  9
$USERR5
 40
0.0
  9
$WORLDVIEW
 70
     1
  9
$SHADEDGE
 70
     3
  9
$SHADEDIF
 70
    70
  9
$TILEMODE
 70
     1
  9
$MAXACTVP
 70
    64
  9
$PLIMCHECK
 70
     0
  9
$PEXTMIN
 10
25.699999999999989
 20
19.5
 30
0.0
  9
$PEXTMAX
 10
231.30000000000001
 20
175.5
 30
0.0
  9
$PLIMMIN
 10
-20.0
 20
-7.5
  9
$PLIMMAX
 10
277.0
 20
202.5
  9
$UNITMODE
 70
     0
  9
$VISRETAIN
 70
     1
  9
$PLINEGEN
 70
     0
  9
$PSLTSCALE
 70
     1
  0
ENDSEC
  0
SECTION
  2
TABLES
  0
TABLE
  2
VPORT
 70
     1
  0
VPORT
  2
*ACTIVE
 70
     0
 10
0.0
 20
0.0
 11
1.0
 21
1.0
 12
15.460555108473949
 22
-58.881097531796847
 13
0.0
 23
0.0
 14
10.0
 24
10.0
 15
10.0
 25
10.0
 16
0.0000000000001865
 26
0.0
 36
839.83184095859247
 17
1.5000000000039859
 27
0.0365849741657343
 37
0.0
 40
349.32286330139118
 41
1.742325581395348
 42
50.0
 43
0.0
 44
0.0
 50
0.0
 51
0.000000000000009
 71
     0
 72
  1000
 73
     1
 74
     3
 75
     0
 76
     0
 77
     0
 78
     0
  0
ENDTAB
  0
TABLE
  2
LTYPE
 70
     4
  0
LTYPE
  2
CONTINUOUS
 70
     0
  3
Solid line
 72
    65
 73
     0
 40
0.0
  0
ENDTAB
  0
TABLE
  2
LAYER
 70
     8
  0
LAYER
  2
0
 70
     0
 62
     7
  6
CONTINUOUS
  0
ENDTAB
  0
TABLE
  2
STYLE
 70
     3
  0
STYLE
  2
STANDARD
 70
     0
 40
0.0
 41
1.0
 50
0.0
 71
     0
 42
2.5
  3
txt
  4

  0
ENDTAB
  0
TABLE
  2
VIEW
 70
     1
  0
ENDTAB
  0
TABLE
  2
UCS
 70
     0
  0
ENDTAB
  0
TABLE
  2
APPID
 70
    11
  0
APPID
  2
ACAD
 70
     0
  0
APPID
  2
ACAD_PSEXT
 70
     0
  0
APPID
  2
ACAECLAYERSTANDARD
 70
     0
  0
APPID
  2
ACAD_NAV_VCDISPLAY
 70
     0
  0
APPID
  2
REVIT
 70
     0
  0
APPID
  2
ACAD_EXEMPT_FROM_CAD_STANDARDS
 70
     0
  0
APPID
  2
ACADANNOTATIVE
 70
     0
  0
APPID
  2
ACAUTHENVIRON
 70
     0
  0
APPID
  2
ACDBDYNAMICBLOCKTRUENAME
 70
     0
  0
APPID
  2
ACDBDYNAMICBLOCKGUID
 70
     0
  0
APPID
  2
ACAD_MLEADERVER
 70
     0
  0
ENDTAB
  0
TABLE
  2
DIMSTYLE
 70
     1
  0
DIMSTYLE
  2
STANDARD
 70
     0
  3

  4

  5

  6

  7

 40
1.0
 41
0.18
 42
0.0625
 43
0.38
 44
0.18
 45
0.0
 46
0.0
 47
0.0
 48
0.0
140
0.18
141
0.09
142
0.0
143
25.399999999999999
144
1.0
145
0.0
146
1.0
147
0.09
 71
     0
 72
     0
 73
     1
 74
     1
 75
     0
 76
     0
 77
     0
 78
     0
170
     0
171
     2
172
     0
173
     0
174
     0
175
     0
176
     0
177
     0
178
     0
  0
ENDTAB
  0
ENDSEC
  0
SECTION
  2
BLOCKS
  0
BLOCK
  8
0
  2
$MODEL_SPACE
 70
     0
 10
0.0
 20
0.0
 30
0.0
  3
$MODEL_SPACE
  1

  0
ENDBLK
  5
D
  8
0
  0
BLOCK
 67
     1
  8
0
  2
$PAPER_SPACE
 70
     0
 10
0.0
 20
0.0
 30
0.0
  3
$PAPER_SPACE
  1

  0
ENDBLK
  5
530
 67
     1
  8
0
  0
ENDSEC
  0
SECTION
  2
ENTITIES
  0
LINE
  5
496
  8
0
 10
-0.0000000000084677
 20
-125.79901739662741
 30
0.0
 11
0.0000000000084649
 21
120.2880003596611
 31
0.0
  0
LINE
  5
497
  8
0
 10
139.17039317136499
 20
7.0588925892792211
 30
0.0
 11
0.0000000000000772
 21
0.9824180469337855
 31
0.0
  0
LINE
  5
510
  8
0
 10
-139.17039317136499
 20
7.0588925892792718
 30
0.0
 11
-0.0000000000000771
 21
0.9824180469337855
 31
0.0
  0
LINE
  5
542
  8
0
 10
-53.536584974144752
 20
101.5365849741642
 30
0.0
 11
56.463415025855483
 21
101.5365849741642
 31
0.0
  0
LINE
  5
543
  8
0
 62
     7
 10
56.463415025839183
 20
91.536584974163276
 30
0.0
 11
56.463415025839289
 21
101.5365849741632
 31
0.0
  0
LINE
  5
544
  8
0
 62
     7
 10
-53.536584974161777
 20
101.5365849741647
 30
0.0
 11
-53.53658497416189
 21
91.536584974164739
 31
0.0
  0
LINE
  5
545
  8
0
 62
     7
 10
56.463415025855483
 20
91.536584974167766
 30
0.0
 11
56.463415025855468
 21
107.5365849741686
 31
0.0
  0
LINE
  5
546
  8
0
 62
     7
 10
-53.536584974144752
 20
107.53658497416851
 30
0.0
 11
-53.536584974144738
 21
91.536584974167695
 31
0.0
  0
LINE
  5
547
  8
0
 62
     7
 10
1.463415025855167
 20
107.53658497416831
 30
0.0
 11
56.463415025855348
 21
107.53658497416851
 31
0.0
  0
LINE
  5
548
  8
0
 62
     7
 10
-53.536584974144667
 20
107.53658497416841
 30
0.0
 11
1.463415025855191
 21
107.53658497416831
 31
0.0
  0
LINE
  5
54B
  8
0
 62
     7
 10
99.608879735286735
 20
-32.690082338995317
 30
0.0
 11
115.593219989749
 21
-31.992172141150078
 31
0.0
  0
LINE
  5
54C
  8
0
 62
     7
 10
112.36529839671751
 20
41.937392460491857
 30
0.0
 11
96.380958142255295
 21
41.239482262646618
 31
0.0
  0
LINE
  5
54D
  8
0
 62
     7
 10
65.380433322146956
 20
-28.178852487663701
 30
0.0
 11
99.347156362878764
 21
-26.695793317242561
 31
0.0
  0
LINE
  5
54E
  8
0
 62
     7
 10
96.642681514662684
 20
35.245193240893833
 30
0.0
 11
62.675958473930891
 21
33.762134070472733
 31
0.0
  0
LINE
  5
54F
  8
0
 62
     7
 10
61.000000000016897
 20
-22.3643950779812
 30
0.0
 11
65.118709949738417
 21
-22.184563465908571
 31
0.0
  0
LINE
  5
550
  8
0
 62
     7
 10
62.937681846338307
 20
27.76784504871754
 30
0.0
 11
61.000000000017039
 21
27.683241749538539
 31
0.0
  0
LINE
  5
555
  8
0
 62
     7
 10
-96.307788193923585
 20
41.239482262647101
 30
0.0
 11
-112.2921284483858
 21
41.937392460492383
 31
0.0
  0
LINE
  5
556
  8
0
 62
     7
 10
-115.5200500414176
 20
-31.99217214114951
 30
0.0
 11
-99.535709786955451
 21
-32.69008233899482
 31
0.0
  0
LINE
  5
557
  8
0
 62
     7
 10
-62.602788525598939
 20
33.76213407047301
 30
0.0
 11
-96.569511566331045
 21
35.245193240894309
 31
0.0
  0
LINE
  5
558
  8
0
 62
     7
 10
-99.273986414547409
 20
-26.695793317242071
 30
0.0
 11
-65.307263373815346
 21
-28.178852487663342
 31
0.0
  0
LINE
  5
559
  8
0
 62
     7
 10
-61.000000000016989
 20
27.686436504674411
 30
0.0
 11
-62.864511898006683
 21
27.767845048717849
 31
0.0
  0
LINE
  5
55A
  8
0
 62
     7
 10
-65.045540001407062
 20
-22.184563465908219
 30
0.0
 11
-61.000000000017117
 21
-22.361200322845299
 31
0.0
  0
LINE
  5
566
  8
0
 62
     7
 10
67.000000000017167
 20
74.486305079835674
 30
0.0
 11
67.000000000017252
 21
90.486305079835574
 31
0.0
  0
LINE
  5
567
  8
0
 62
     7
 10
-67.000000000016854
 20
90.486305079835887
 30
0.0
 11
-67.000000000016882
 21
74.486305079835986
 31
0.0
  0
LINE
  5
568
  8
0
 62
     7
 10
61.000000000016833
 20
-49.963851840429953
 30
0.0
 11
61.000000000017167
 21
74.486305079835674
 31
0.0
  0
LINE
  5
569
  8
0
 62
     7
 10
-61.000000000016868
 20
74.486305079835986
 30
0.0
 11
-61.000000000017188
 21
-49.963851840429598
 31
0.0
  0
LINE
  5
56A
  8
0
 62
     7
 10
55.000000000011433
 20
-92.513694920164809
 30
0.0
 11
55.000000000011532
 21
-49.963851840429847
 31
0.0
  0
LINE
  5
56B
  8
0
 62
     7
 10
-55.000000000011831
 20
-49.963851840429641
 30
0.0
 11
-55.00000000001193
 21
-92.513694920164539
 31
0.0
  0
LINE
  5
56C
  8
0
 62
     7
 10
65.000000000000711
 20
-108.5136949201648
 30
0.0
 11
65.000000000000682
 21
-92.513694920164895
 31
0.0
  0
LINE
  5
56D
  8
0
 62
     7
 10
-65.000000000001236
 20
-92.513694920164554
 30
0.0
 11
-65.000000000001307
 21
-108.5136949201645
 31
0.0
  0
LINE
  5
56E
  8
0
 62
     7
 10
65.00000000000054
 20
-108.5136949201645
 30
0.0
 11
-0.0000000000000737
 21
-108.5136949201644
 31
0.0
  0
LINE
  5
56F
  8
0
 62
     7
 10
-0.0000000000000737
 20
-108.5136949201644
 30
0.0
 11
-65.000000000001137
 21
-108.5136949201642
 31
0.0
  0
LINE
  5
570
  8
0
 62
     7
 10
-0.0000000000000089
 20
90.486305079835617
 30
0.0
 11
67.000000000017081
 21
90.486305079835461
 31
0.0
  0
LINE
  5
571
  8
0
 62
     7
 10
-67.000000000016712
 20
90.486305079835788
 30
0.0
 11
-0.0000000000000089
 21
90.486305079835617
 31
0.0
  0
LINE
  5
572
  8
0
 62
     7
 10
-0.0000000000000484
 20
74.486305079835731
 30
0.0
 11
67.000000000017053
 21
74.486305079835574
 31
0.0
  0
LINE
  5
573
  8
0
 62
     7
 10
-67.00000000001674
 20
74.48630507983593
 30
0.0
 11
-0.0000000000000484
 21
74.486305079835731
 31
0.0
  0
LINE
  5
574
  8
0
 62
     7
 10
-0.0000000000003375
 20
-49.963851840429633
 30
0.0
 11
61.000000000016719
 21
-49.963851840429761
 31
0.0
  0
LINE
  5
575
  8
0
 62
     7
 10
-61.000000000017039
 20
-49.963851840429463
 30
0.0
 11
-0.0000000000003375
 21
-49.963851840429633
 31
0.0
  0
LINE
  5
576
  8
0
 62
     7
 10
-0.0000000000004543
 20
-92.513694920164511
 30
0.0
 11
65.000000000000554
 21
-92.513694920164625
 31
0.0
  0
LINE
  5
577
  8
0
 62
     7
 10
-65.000000000001108
 20
-92.513694920164355
 30
0.0
 11
-0.0000000000004543
 21
-92.513694920164511
 31
0.0
  0
VIEWPORT
  5
534
 67
     1
  8
0
  6
CONTINUOUS
 10
128.5
 20
97.5
 30
0.0
 40
387.10989767441862
 41
222.18000000000001
 68
     1
 69
     1
1001
ACAD
1000
MVIEW
1002
{
1070
    16
1010
0.0
1020
0.0
1030
0.0
1010
0.0
1020
0.0
1030
1.0
1040
0.0
1040
222.18000000000001
1040
128.5
1040
97.5
1040
50.0
1040
0.0
1040
0.0
1070
     0
1070
  1000
1070
     1
1070
     1
1070
     0
1070
     0
1070
     0
1070
     0
1040
0.0
1040
0.0
1040
0.0
1040
10.0
1040
10.0
1040
10.0
1040
10.0
1070
     0
1002
{
1002
}
1002
}
  0
VIEWPORT
  5
538
 67
     1
  8
0
  6
CONTINUOUS
 10
128.5
 20
97.5
 30
0.0
 40
205.59999999999999
 41
156.0
 68
     2
 69
     2
1001
ACAD
1000
MVIEW
1002
{
1070
    16
1010
1.5000000000039859
1020
0.0365849741657343
1030
0.0
1010
0.0000000000001865
1020
0.0
1030
839.83184095859247
1040
0.0000000000000002
1040
248.04526988697529
1040
-1.500000000003979
1040
-2.792093492648859
1040
50.0
1040
0.0
1040
0.0
1070
     0
1070
  1000
1070
     1
1070
     3
1070
     0
1070
     0
1070
     0
1070
     0
1040
0.0
1040
0.0
1040
0.0
1040
10.0
1040
10.0
1040
10.0
1040
10.0
1070
     0
1002
{
1002
}
1002
}
  0
ENDSEC
  0
EOF
